Nofx - Professional Crastination Chords & Tabs

 

Professional Crastination Chords & Tabs

Nofx Chords & Tabs

Version: 1 Type: Bass Tab 0 ratings
1 star 2 stars 3 stars 4 stars 5 stars
comments

Professional Crastination Bass Tab

   
-------------------------------------------------------------
PROFESSIONAL CRASTINATION /  NOFX
-------------------------------------------------------------

By: Carlos Pino

verse
G-|----------------------------------------------------------|
D-|---------------------------------------------------------------
A-|-7-7-7-7-10-7-7-7--7-7-7-7-10-7-7-7--7-7-7-7-10-7-7-7-5-3-|
E-|----------------------------------------------------------|

professional crastination its a way of life
G-|-----------------|
D-|------------------
A-|-7-10-12-14-|
E-|----------------
[ Tab from: http://www.guitartabs.cc/tabs/n/nofx/professional_crastination_btab.html ]
I Think this is where this goes :) Play with it and you'll figure it out.
G-|-------------------------------------------------------------------------
D-|--------------------------------------------------------------------------
A-|-7-7-7-7-10--9-10--9-5-5-5-5-7-7-7-7-7-7-7-7-10--9-10--9-5-5-5-5-3-3-2-2-
E-|-------------------------------------------------------------------------

don`t kown the part 
but this come after

G-|-------------------------------------------|
D-|---------------------------------------|
A-|-7---5-7---7-7-7-7------------5-5-5-5-7-7-7-7-|
E-|----3------------------3-3-3-3-----------------|



Comments