Nofx - Plan Chords & Tabs

 

Plan Chords & Tabs

Nofx Chords & Tabs

Version: 2 Type: Tab 0 ratings
1 star 2 stars 3 stars 4 stars 5 stars
comments

Plan Tab

   
THE PLAN by NOFX. Album : Timmy the Turtle 7" (1999)                      1/2
Outrageous song, which continues the great path of We Threw Gasoline...
A=Hefe   B=Melvin   A&B=both
:
# intro #A&B   *=play 8X (last seven palm-muted!)   !use palm-muting!
E-------------------------------------------------------------------------|
B----*---------------------------------*----------------------------------|
G---7-----5555-4-5-4--*----5555-4-5-4-7-----5555-4-5-4--*----5555-4-5-4---|
D---7-----5555-4-5-4-4-----5555-4-5-4-7-----5555-4-5-4-4-----5555-4-5-4---|
A---5-----3333-2-3-2-5-----3333-2-3-2-5-----3333-2-3-2-5-----3333-2-3-2---|
E-------------------------------------------------------------------------|
:
# chorus #A&B
E---2-------0-------0-------3-------2-------0-------0---------------|
B---3-------0-------1-------0-------3-------0-------1---------------|
G---2-------0-------0-------0-------2-------0-------0---------------|
D---0-------2-------2-------0-------0-------2-------2---------------|
A-----------2-------3-------2---------------2-------3---------------|
E-----------------------------------------------------------3---2---|
:   D       Em      C       G
:
# verse #A  !play all notes 6X!   <<<=pick-slide    Am  G  F#m
E---------------------------------------------------5---3---2---------|
B---------------------------------------------------5---3---2---------|
G---9---9---5-------9---5-------4---5--12---7---9---5---4---2---------|
D---9---9---5---5---9---5---5---4---5--12---7---9---7---5---4---------|
A---7---7---3---5---7---3---5---2---3--10---5---7---7---5---4---<<<---|
E---------------3-----------3-----------------------5---3---2---<<<---|
# verse #B  !play all notes 6X!   <<<=pick-slide
E---------------------------------------------------------------------|
B---------------------------------------------------------------------|
G---9---9---5-------9---5---------------------------------------------|
D---9---9---5---5---9---5---0---1---5---9---7---9--10---9---7---------|
A---7---7---3---5---7---3---------------------------------------<<<---|
E---------------3-----------------------------------------------<<<---|
:
Then play A&BchorusA&B.
:
# verse2 #A !play all notes 6X!   <<<=pick-slide    *=play 8X with pauses
E---------------------------------------------------------------|
B------------------------------------------------------------*--|
G---9---9---5-------9---5-------4---5--12---7---9-----------7---|
D---9---9---5---5---9---5---5---4---5--12---7---9---7---7---7---|
A---7---7---3---5---7---3---5---2---3--10---5---7---7---7---5---|
E---------------3-----------3-----------------------5---5-------|
# verse2 #B !play all notes 6X!   <<<=pick-slide    *=play 8X with pauses
E---------------------------------------------------------------|
B------------------------------------------------------------*--|
G---9---9---5-------9---5-----------------------------------7---|
D---9---9---5---5---9---5---0---1---5---9---7---9--10--10---7---|
A---7---7---3---5---7---3-----------------------------------5---|
E---------------3-----------------------------------------------|
:
# verse3 #A&B X2 *=play 6X   %=pause   +=rhythm                   Em
E---+-----+-----+---------|-+-----+------------------|-+-----+-----0-|-|
B-------3-----3-----3--*--|-----3-----3--*-----------|-----3-----3-0-|-|
G-----4--4--4--4--4--45---|---4--4--4--45---------77-|---4--4--4--40-|-|
D---5-----4-----2-----5---|-5-----4-----5------22-77-|-5-----4-----2-|-|
A---------------------3---|-------------3------22%55-|-------------2-|-|
E-------------------------|-----END-1---------%00----|----END-2------|-|
:
# chorus2 #B X4
E---2-------0-------0-------3---|
B---3-------0-------1-------0---|
G---2-------0-------0-------0---|   > Then play A&Bchorus2BX2.
D---0-------2-------2-------0---|     >>>>>>>>>>>>>>>>to next page...
A-----------2-------3-------2---|
E-------------------------------|
THE PLAN                                                                  2/2
:
# bridge #A&B   %=pause   *=play 16X  m=palm-muted
E-------------------------------------------------------|
B------------------------------------*---------------*--|
G---5-------9-------5------12-------2---------------7---|
D---5-------9-------5------12-------2---------------7---|
A---3-%%%%%-7-%%%%%-3-%%%%%10-%%%%%-0---------------5---|
E-----------------------------------m-------------------|
:
# verse4 #A&B X2 *=play 6X   %=pause   +=rhythm
E---+-----+-----+---------|-+-----+------------------|-+-----+------/d-|
B-------3-----3-----3--*--|-----3-----3--*-----------|-----3-----3-----|i
G-----4--4--4--4--4--45---|---4--4--4--45---------77-|---4--4--4--4----|v
D---5-----4-----2-----5---|-5-----4-----5------22-77-|-5-----4---------|i
A---------------------3---|-------------3------22%55-|-----------------|d
E-------------------------|-----END-1---------%00----|----END-2-----\--|e
>verse4-END2A
>------------------------------------------|
>------------------------------------------|
>----*-----*-----*-----*--------------77---|
>---2-----4-----5-----7-----5------22-77---|
>----------------------------------22%55---|
>---------------------------------%00------|
>verse4-END2B
>------------------------------------------|
>----*-----------*-----*-------------------|
>---9------*----5-----7---------------77---|
>---9-----4-----5-----7-----5------22-77---|
>---7-----5-----3-----5-----5------22%55---|
>---------------------------3-----%00------|
:
Where's the album, where's the album???...
Tabbed by Jussi Heinonen 25.05.1999.
[ Tab from: http://www.guitartabs.cc/tabs/n/nofx/plan_tab_ver_2.html ]
Comments