Nofx - Philthy Phil Philanthropist Chords & Tabs

 

Philthy Phil Philanthropist Chords & Tabs

Nofx Chords & Tabs

Version: 2 Type: Bass Tab 0 ratings
1 star 2 stars 3 stars 4 stars 5 stars
comments

Philthy Phil Philanthropist Bass Tab

PHILTHY PHIL PHILANTHROPIST
NOFX

I finally finished this tab. Listen to the song and find out 
when to play each part.


(3x)
G:----------------------------------------------------------------
D:----------------------------------------------------------------
A:------------------------------------------------3-3-3-3-3-3-3-3-
E:3-3-3-3-3-3-3-3-3-3-3-3-3-3-3-3-1-1-1-1-1-1-1-1-----------------
 
(1x)
G:----------------------------------------------------------------
D:----------------------------------------------------------------
A:--------------------------------3-3-3-3-3-3-3-3-5-5-5-5-5-5-5-5-
E:3-3-3-3-3-3-3-3-3-3-3-3-3-3-3-3---------------------------------

"BLA......"
G:------------------------
D:------------------------
A:--------5-5-5-5-5-5-5-5-
E:3--3--3-----------------

(2x)
G:-------------
D:-5-5-5-------
A:-------5-----
E:---------7---

G:-5-5-5-4--------4-4-4-5-4---
D:---------7----------------7-
A:----------------------------
E:----------------------------
[ Tab from: http://www.guitartabs.cc/tabs/n/nofx/philthy_phil_philanthropist_btab_ver_2.html ]
There's something wrong....(2X)
G:---------------------5-4--------------
D:5-------5--5-4-----------7-5-4-----4--
A:--5------------7-5-------------5-7----
E:----7---------------------------------

Alcohol.....
G:---------------4-5-7---4-5-7---4-5-7-5-4-----
D:-5-----------5-------3-------2-----------7-5-
A:----8--7--6----------------------------------
E:---------------------------------------------

Gonna make it seem alright...(X2)
G:-----------------------------------------------------------
D:-----------------------------------------------------------
A:---------------------------------3333333355555555----------
E:-33333333333333330000000000000000------------------3-3-3-3-

Philthy Phil.....
G:---------------------------------------------------------------------
D:---------------------------------------------------------------------
A:-----------------5555555555555555----------------3333333333333333-2-1
E:-5555555555555555----------------3333333333333333--------------------

G:---------------------------------------------------------------------------
D:---------------------------------------------------------------------------
A:-----------------5555555555555555------------------------------------------
E:-5555555555555555-----------------3-3-3-3-1-3-3-3-3-1-3-3-3-3-1-3-3-3-3-1-3

Bass walk:
G:----------
D:-7-5-4----
A:-------7-5
E:----------

Transcribed by Albino
Comments