Nofx - Perfect Government Chords & Tabs

 

Perfect Government Chords & Tabs

Nofx Chords & Tabs

Version: 1 Type: Tab 0 ratings
1 star 2 stars 3 stars 4 stars 5 stars
comments

Perfect Government Tab

#----------------------------------PLEASE NOTE---------------------------------#
#This file is the author's own work and represents their interpretation of the #
#song. You may only use this file for private study, scholarship, or research. #
#------------------------------------------------------------------------------##
From: Rubin1838@aol.com
Date: Sun, 3 Dec 1995 20:52:35 -0500

This is Nofx; Perfect Government, off of Punk in Drublic: transcribed by
Rubin 1838

-----------------------------------------------------------------  w/ out
distortion
-----------------------------------------------------------------
---15-17-19-20---------15---------------------------------
---------------------16-14----16-----------------------------
-------------------------------------16-17-14-12-----------
-------------------------------------------------------14-------

w/ dist.
[ Tab from: http://www.guitartabs.cc/tabs/n/nofx/perfect_government_tab.html ]
------------------------------------------------------------------------------
---------------------------------
---11(bend 2x)-10-8-10-10(full
bend)-8---8---------------12-13-13h15-13-12-13-12--
------------------------------------------------------9---9-7-9---------------
------------------------------
------------------------------------------------------------------------------
----------------------------------
------------------------------------------------------------------------------
----------------------------------
------------------------------------------------------------------------------
----------------------------------

--------------------------------------------------      
 -------12----------------------------------------
                                
---14-----14(full bend)-12-----------------
-----------------------------------14-12-14---
----------------------------------------------------
---------------------------------------------------

w/ out dist.

---3---X---0---X--     (yeah I'd love to watch the world
---0---3---0---1--      from the white house.....)--->  G5toB5toC5toC#5
---0---2---0---0--
---0---0---2---2--      (how do they sleep at night?...)--->G5toE5
(
Comments