Nofx - Party Enema Chords & Tabs

 

Party Enema Chords & Tabs

Nofx Chords & Tabs

Version: 1 Type: Tab 0 ratings
1 star 2 stars 3 stars 4 stars 5 stars
comments

Party Enema Tab

I don't know if this exactly right but it sounds right to me
[ Tab from: http://www.guitartabs.cc/tabs/n/nofx/party_enema_tab.html ]
Intro:
e--|----------------------------------------|
B--|----------------------------------------|
G--|----------------------------------------|
D--|7-7-7-7---6-6-6-6---5-5-5-5---4-4-4-4---|
A--|7-7-7-7---7-7-7-7---5-5-5-5---5-5-5-5---|
E--|5-5-5-5---7-7-7-7---3-3-3-3-------------|
   
   |--------------------pm------------------|

Main riff:
e--|----------------------------------------|
B--|----------------------------------------|
G--|----------------------------------------|
D--|7---7-----6---6-----5---5-5---4---4-4---|
A--|7---7-----7---7-----5---5-5---5---5-5---|
E--|5---5-----7---7-----3---3-3-------------|
Comments