Nofx - Open Your Eyes Chords & Tabs

 

Open Your Eyes Chords & Tabs

Nofx Chords & Tabs

Version: 2 Type: Tab 0 ratings
1 star 2 stars 3 stars 4 stars 5 stars
comments

Open Your Eyes Tab

   
OPEN YOUR EYES by NOFX. Album : ?
Great song, but why Mike has his voice distorted - it doesn't fit!
A=left guitar   B=right guitar   A&B=both
:
# intro #B  !A is quiet!
E-----------------------------------------------|
B-----------------------------------------------|
G---------------------5-5-5-5-5-3-3-3-3-3-3-3---|
D---2-2-2-5-5-5-3-3-3-5-5-5-5-5-3-3-3-3-3-3-3---|
A---2-2-2-5-5-5-3-3-3-3-3-3-3-3-1-1-1-1-1-1-1---|
E---0-0-0-3-3-3-1-1-1-3-3-3-3-3-----------------|
:
# intro2 #A&B
E-----------------------------------------------------|
B-----------------------------------------------------|
G---------------------------5-5-5-5-5-3-3-3-3-3-3-3---|
D---2-2-2-2-2-2-5-5-5-3-3-3-5-5-5-5-5-3-3-3-3-3-3-3---|
A---2-2-2-2-2-2-5-5-5-3-3-3-3-3-3-3-3-1-1-1-1-1-1-1---|
E---0-0-0-0-0-0-3-3-3-1-1-1-3-3-3-3-3-----------------|
:
# intro3 #A X2 !B plays intro2A&BX2!
E-----------------------------------------------------|
B-----------------------------------------------------|
G---9-9-9-9-9-9121212101010---------------------------|
D---9-9-9-9-9-91212121010101010101010-8-8-8-8-8-8-8---|
A---7-7-7-7-7-7101010-8-8-81010101010-8-8-8-8-8-8-8---|
E---------------------------8-8-8-8-8-6-6-6-6-6-6-6---|
:
Then play A&Bintro2A&BX2 (with some palm-muting).
:
# ska-chorus #A&B X2
E-------------------------------------|
B--10101010-6-6-6-6-8-8-8-8-8-8-8-8---|
G---9-9-9-9-5-5-5-5-7-7-7-7-7-7-7-7---|
D-------------------------------------|
A-------------------------------------|
E-------------------------------------|
:
# chorus #A&B X2  !play all notes 6X!
E-----------3---3-------1---3---3---|
B-----------3---3-------1---3---3---|
G-----------4---4-------2---4---4---|
D---7---3---5---5---7---3---5---5---|
A---7---3---5---5---7---3---5---5---|
E---5---1---3---3---5---1---3---3---|
:
Then play A&Bintro3AX2, A&Bintro2A&B (use some palm-muting),
A&Bska-chorusA&BX2, A&BchorusA&BX2 and A&BchorusA&BX2
(slower and end with first note). That's all folks!
Tabbed by Jussi Heinonen 18.06.1999.
[ Tab from: http://www.guitartabs.cc/tabs/n/nofx/open_your_eyes_tab_ver_2.html ]
Comments