Nofx - On My Mind Chords & Tabs

 

On My Mind Chords & Tabs

Nofx Chords & Tabs

Version: 1 Type: Tab 0 ratings
1 star 2 stars 3 stars 4 stars 5 stars
comments

On My Mind Tab

ON MY MIND by NOFX. Album: Maximum Rocknroll (1988?)
Kinda "heavy" song with cool riffs.
:
# intro # X4
E-------------------------------------------------------|
B-------------------------------------------------------|
G---------------------------------------------------5---|
D-----------------------------------------------5-2-5---|
A---2-2-2-2-2-2-2-2-3-2-2-3-2-2-3-2-2-2-2-2-2-2-5-2-3---|
E---0-0-0-0-0-0-0-0-1-0-0-1-0-0-1-0-0-0-0-0-0-0-3-0-----|
:
# chorus #  *=play 7X
E--------------------------------------------------------------------|
B---------------*----------------*----------------*---------------*--|
G---9-7-9-7-9-10-----9-7-9-7-9-10-----9-7-9-7-9-10-----9-7-9-7-7-5---|
D---9-7-9-7-9-10-----9-7-9-7-9-10-----9-7-9-7-9-10-----9-7-9-7-7-5---|
A---7-5-7-5-7--8-----7-5-7-5-7--8-----7-5-7-5-7--8-----7-5-7-5-5-3---|
E--------------------------------------------------------------------|
:
Then play intro X3 and chorus.
:
# bridge #  X4      *=play 3-6X          # intro-outro #  !after bass!
E-------------------------------|        E---------------|
B------------*---------------*--|        B---------------|
G----*------5--------*------9---|        G---5-7-9-9-9---|
D---2-------5-------5-------9---|        D---5-7-9-9-9---|
A---2-------3-------5-------7---|        A---3-5-7-7-7---|
E---0---------------3-----------|        E---------------|
:
# outro #  X4       *=play 3X
E---------------------------------------------------------------|
B------------*---------------*---------------*------------------|
G----*------5--------*------9--------*------5-------5-7-9-9-9---|
D---2-------5-------5-------9-------2-------5-------5-7-9-9-9---|
A---2-------3-------5-------7-------2-------3-------3-5-7-7-7---|
E---0---------------3---------------0---------------------------|
:
Then play intro-outro X3 and it's done.
Tabbed by Jussi Heinonen 26.04.1998.

[ Tab from: http://www.guitartabs.cc/tabs/n/nofx/on_my_mind_tab.html ]
Comments