Nofx - Nowhere Chords & Tabs

 

Nowhere Chords & Tabs

Nofx Chords & Tabs

Version: 1 Type: Tab 0 ratings
1 star 2 stars 3 stars 4 stars 5 stars
comments

Nowhere Tab

NOWHERE by NOFX. Album: Ribbed (1991)                                     1/3
Weird and cool little song with nice solos.
A=wide guitar  B=large guitar  A&B=both guitars
:
# intro #A     /=slide up   
# solo #B    p=pull-off                                                      >
E---13p12----13p12----13p12----13p12-13p12----13p12----13p12----13p12----13p12
B---------13-------13-------13-------------13-------13-------13-------13----->
G---------------------------------------------------------------------------->
D---------------------------------------------------------------------------->
A---------------------------------------------------------------------------->
E---------------------------------------------------------------------------->
>solo-backgroundA                            
>----------------------------------------------------------------------------|
>----------------------------------------------------------------------------|
>----7-----------------------------------7-10--------------------------------|
>----7-----------------------------------7-10--------------------------------|
>----5-----------------------------------5--8--------------------------------|
>----------------------------------------------------------------------------|
>soloB                \=slide down
>---13p12----13p12----13p12----13p12----13p12-13p12----13p12----13p12----13\-|
>---------13-------13-------13-------13-------------13-------13-------13-13\-|
>----------------------------------------------------------------------------|
>----------------------------------------------------------------------------|
>----------------------------------------------------------------------------|
>----------------------------------------------------------------------------|
:
>>>>>>>>>to next page...
:
:
:
NOWHERE                                                                   2/3
:
# verse2 #A       *=play 6X       (Our human nature...)
E-------------------------------------------------------|
B----------------------------------------*--------------|
G---------------------------------------7------*-----*--|
D---------------------------------------7-----3-----5---|
A---0-----3-----5-----5-----3-----3-----5-----3-----5---|
E---------------------------------------------1-----3---|
# verse2 #B       *=play 6X
E-------------------------------------------------------|
B----------------------------------------*--------------|
G---------------------------------------7------*-----*--|
D---------------------------------------7-----3-----5---|
A---0-----------------------0-----------5-----3-----5---|
E---------3-----3-----1-----------3-----------1-----3---|
:
# solo2-backgorund #
E--------------------------------------------------------|
B--------------------------------------------------------|
G---5-------------------------5--7---------7-10----------|
D---5-------------------------5--7---------7-10----------|
A---3-------------------------3--5---------5--8----------|
E--------------------------------------------------------|
# solo2 #        /=slide-up        b=bend up     \=slide down
E---------13-12b\10--------------------------------------|
B------13-----------13-----------------------13-----15\--|
G----------------------------12-14-----14----12-----14\--|
D--/14-----------------14-15----14-----14/15-------------|
A--------------------------------------------------------|
E--------------------------------------------------------|
:
# verse3 #A         *=play 6X     (We don't give a shit...)
E---------------------------------------|
B--------*-------*-----------*----------|
G----*--5----*--7-------5---7----*---*--|
D---7---5---5---7---3---5---7---3---5---|
A---7---3---5---5---3---3---5---3---5---|
E---5-------3-------1-----------1---3---|
# verse3 #B         *=play 6X
E---------------------------------------|
B--------*-------*-----------*----------|
G----*--5----*--7--10---5---7----*---*--|
D---7---5---5---7--10---5---7---3---5---|
A---7---3---5---5---8---3---5---3---5---|
E---5-------3-------------------1---3---|
:
# solo3-background #A    X3                                            >
E---------------------------------------------------------------------->
B---------------------------------------------------------------------->
G---5-----------------------------------5-----7-----------------7------>
D---5-----------------------------------5-----7-----------------7------>
A---3-----------------------------------3-----5-----------------5------>
E---------------------------------------------------------------------->
# solo3 #B     X3    !rhtyhm changes every time!   ()=not played second time>
E---------------------------------------------------------------------->
B-------8--------------------8---------------------10------------------>
G-----9---10-9-------------9---10-9-------------11----12-11------------>
D--10----------12-10(12)10----------12-10(12)12-------------14-12(14)-->
A---------------------------------------------------------------------->
E---------------------------------------------------------------------->
:
>>>>>>>>to next page...
:
:
:
:
:
NOWHERE                                                                   3/3
:
>solo3-backgroundA                 # end-solo3-background #A
>-----------------------------|    E-------------|
>-----------------------------|    B-------------|
>--10----------------10-------|    G-------------|
>--10----------------10-------|    D-------------|   ---8-----------------8-------|    A---3-------15-------------17-15(17)---|    D--10---------|
>-----------------------------|    A-------------|
>-----------------------------|    E-------------|
:
# outro #A                                                     >
E-------------------------------------------------------------->
B-------------------------------------------------------------->
G---5----5----5---5----5----5------8----8---8----8----8-10-8--->
D---5--5-5--5-5-5-5--5-5--5-5-5-6--8-6--8-6-8-8--8-8--8-10-8--->
A---3--5-3--5-3-5-3--5-3--5-3-5-6--6-6--6-6-6-8--6-8--6--8-6--->
E------3----3---3----3----3---3-4----4----4---6----6----------->
# outro #B                                                     >
E-------------------------------------------------------------->
B-------------------------------------------------------------->
G---5----5----5---5----5----5------8----8---8----8----8-10-8--->
D---5--5-5--5-5-5-5--5-5--5-5-5-6--8-6--8-6-8-8--8-8--8-10-8--->
A---3--5-3--5-3-5-3--5-3--5-3-5-6--6-6--6-6-6-8--6-8--6--8-6--->
E------3----3---3----3----3---3-4----4----4---6----6----------->
>outroA
>----------------------------------------------------------------------------|
>----------------------------------------------------------------------------|
>---5----5----5---5----5----5------------------------------------------------|
>---5--5-5--5-5-5-5--5-5--5-5-5-6-6--6--6-6-6-8-8--8--8-8-8-10-10-10-10-10-10|
>---3--5-3--5-3-5-3--5-3--5-3-5-6-6--6--6-6-6-8-8--8--8-8-8-10-10-10-10-10-10|
>------3----3---3----3----3---3-4-4--4--4-4-4-6-6--6--6-6-6--8--8--8--8--8--8|
>outroB
>----------------------------------------------------------------------------|
>----------------------------------------------------------------------------|
>----------------------------------------------------------------------------|
>--------------------------------------------------------------------------10|
>---3----3----3---3----3----3-----6-----6---6---6-----6-8-6----10-----8-10---|
>------3----3---3----3----3---3-4----4----4---6----6---------8-----8---------|
:
Yeah!
Tabbed by Jussi Heinonen 01.03.1998.               Thanks to Juha Kellokoski.

[ Tab from: http://www.guitartabs.cc/tabs/n/nofx/nowhere_tab.html ]
Comments