Nofx - Nowhere Chords & Tabs

 

Nowhere Chords & Tabs

Nofx Chords & Tabs

Version: 2 Type: Bass Tab 0 ratings
1 star 2 stars 3 stars 4 stars 5 stars
comments

Nowhere Bass Tab

   
NOWHERE / NOFX



G:---------------------------------------------------------------
D:---------------------------------------------------------------
A:--7-4-5-11-12-------------------------------------------------
E:-5-------------5-5-3-5-5-3-5-5-3-5-5-1-1-0-1-1-0-3-3-1-3-3-5-


G:-----------------------------------------------------------------------
D:-----------------------------------------------------------------------
A:-3-3-3-3-3-3-3-3-------------------5-5-5-5-5-5-5-5------------------
E:-------------------3-3-3-3-3-3-3-3------------------1-1-1-1-1-1-1-1-



G:--------------------------------------------------------------------
D:-------------------------------------------------------------------
A:-3-3-3-3-3-3-3-3-5-5-5-5-5-5-5------------------------------------
E:----------------------------------1-1-1-1-1-1-1-1-3-3-3-3-3-3-3-3-



G:--------------------------------------------------------------
D:--------------------------------------------------------------
A:--------------------------------------------------------------
E:10-12-10-12-10-10-13-10-12-10-12-10-10-12-10-12-10-12-10



G:--------------------------------------------------------------------
D:--------------------------------------------------------------------
A:--7-3--5-5--3-3-5-5-5-5-5-5-5-5-----------------------------------
E:-5----3----1----------------------1-1-1-1-1-1-1-1-3-3-3-3-3-3-3-3



G:-9----------------------9-11-12- 
D:--------------------------------- 
A:---8-------12-11-8-10-8---------
E:-----12-10----------------------- 
[ Tab from: http://www.guitartabs.cc/tabs/n/nofx/nowhere_btab_ver_2.html ]
G:---------------------------------------------------------------------
D:---------------------------------------------------------------------
A:-----------------3-3-3-3-3-3-3-3------------------5-5-5-5-5-5-5-5-
E:-5-5-5-5-5-5-5-5-----------------3-3-3-3-3-3-3-3-------------------



G:----------------------------------------------------------
D:---------------------------------------------------------
A:--3-3-5-5-5-5-5-5-5-5-----------------------------------
E:-1---------------------1-1-1-1-1-1-1-1-3-3-3-3-3-3-3-3-



G:---9--9-10-9--9----9-9-10-9--9---11--11-12-11--11----14--14-15-14--14-
D:-10---------10---10--------10--12------------12----15------------15------
A:-----8--------------8--------------10------------------13----------------
E:--------------------------------------------------------------------------


G:---9--9-10-9--9----9-9-10-9--9---11--11-12-11--11----14--14-15-14--14-
D:-10---------10---10--------10--12------------12----15------------15-----
A:-----8--------------8--------------10------------------13----------------
E:--------------------------------------------------------------------------



G:---9--9-10-9--9----9-9-10-9--9---11--11-12-11--11----14--14-15-14--14-
D:-10---------10---10--------10--12------------12----15------------15-----
A:----8--------------8--------------10------------------13-----------------
E:--------------------------------------------------------------------------


G:-------------------------------------------------------------------------
D:-------------------------------------------------------------------------
A:-3--3-3-1-3-3-1-3-3-1---------------------------3-3-1-3-3-1-3-3-1-3-3-
E:--------------------------4-4-2-4-4-6-6-4-6-6-------------------------- 


G:-----------------------------------
D:----------------------------------- 
A:----------------------3-3-3-3--8-
E:-4-4-2-4-4-6-6-4-6-6------------ 
Comments