Nofx - New Happy Birthday Song Chords & Tabs

 

New Happy Birthday Song Chords & Tabs

Nofx Chords & Tabs

Version: 2 Type: Tab 0 ratings
1 star 2 stars 3 stars 4 stars 5 stars
comments

New Happy Birthday Song Tab

-------------------------------------------------------------------------------
			     new happy birthday song? - NOFX
-------------------------------------------------------------------------------
Tabbed by:Anti-flag5000
Email:streetracer363@aol.com

Tuning:regular

Intro:
e|---------------------------------------------------------------------------|X2
B|---------------------------------------------------------------------------|
G|---------------------------------------------------------------------------|
D|-------------------7--7--7----9--9----7--7--7------------------------------|
A|----------7--7-----5--5--5----7--7----5--5--5------------------------------|
E|----/-----5--5-------------------------------------------------------------|

Verse 1: pm( palm mute )
e|---------------------------------------------------------------------------|
B|---------------------------------------------------------------------------|
G|---------------------------------------------------------------------------|
D|---------------------------------------------------------------------------|
A|---7--7--7--7--7--7--7--7--7--7--7--7--7--7--7--7--7--7--7--7--------------|
E|---5--5--5--5--5--5--5--5--5--5--5--5--5--5--5--5--5--5--5--5--------------|
   "Happy birthday your not special. You're getting older and not much better"
[ Tab from: http://www.guitartabs.cc/tabs/n/nofx/new_happy_birthday_song_tab_ver_2.html ]
e|---------------------------------------------------------------------------|
B|---------------------------------------------------------------------------|
G|---------------------------------------------------------------------------|
D|--------------------7------------------------------------------------------|
A|---7--7--7--7--7----5---9-----7--------------------------------------------|
E|---5--5--5--5--5--------7-----5--------------------------------------------|
   " We all want to ebase you, thats why we're singing this song"

e|---------------------------------------------------------------------------|
B|---------------------------------------------------------------------------|
G|---------------------------------------------------------------------------|
D|---------------------------------------------------------------------------|
A|---7--7--7--7--7--7--7--7--------------------------------------------------|
E|---5--5--5--5--5--5--5--5--------------------------------------------------|
   " so happy f***ing birthday you're not special"

e|---------------------------------------------------------------------------|
B|---------------------------------------------------------------------------|
G|---------------------------------------------------------------------------|
D|---------7--7--7---9--9---7--7--7----------------7--7--7---9--9---7--7--7--|
A|--7--7---5--5--5---7--7---5--5--5-------7--7-----5--5--5---7--7---5--5--5--|
E|--5--5----------------------------------5--5-------------------------------|
                            " you're not special"

e|-----|
B|-----|
G|-----|
D|-----|
A|--7--|
E|--5--|
Comments