Nofx - My Vagina Chords & Tabs

 

My Vagina Chords & Tabs

Nofx Chords & Tabs

Version: 1 Type: Bass Tab 0 ratings
1 star 2 stars 3 stars 4 stars 5 stars
comments

My Vagina Bass Tab

Song:My Vagina
Band:Nofx
Album:Pump up the Valuum
tabbed by:Nick MIghall

I saw a request for this tab so I decided to put it up, it should all
Be there but if its not just e-mail and ill finish it off.

\ means slide down

Intro

G:---------------------------------------|------------------------
D:---------------------------------------|------------------------
A:-------------4-5-5-5-4-----------------|-------4-5-5-5-4--------
E:-12\0--0-0-0-----------5-5-5-5-5-5-5-4-|-0-0-0------------------

Verse part 1                         Verse part 2
[ Tab from: http://www.guitartabs.cc/tabs/n/nofx/my_vagina_btab.html ]
G:---------------------------------|------------------------------------
D:---------------------------------|------------------------------------
A:-----------------------4-5-5-5-4-|--------------------5-5-5-5-7-7-7-7-
E:-5-5-5-4-2-2-2-4-0-0-0-----------|--5-5-5-5-4-2-2-2-4-----------------

Chorus part 1

G:-----------------------------------------------------------------
D:-----------------------------------------------------------------
A:-2-2-2-2-2-2-2-2-------------------------------------------------
E:-----------------0-0-0-0-0-0-0-0-5-5-5-5-5-5-5-5-2-2-2-2-2-2-2-2-

Chorus part 2

G:-----------------------------------------------------------------
D:-----------------------------------------------------------------
A:-2-2-2-2-2-2-2-2-------------------------------------------------
E:-----------------0-0-0-0-0-0-0-0-5-5-5-5-5-5-5-5-5-5-5-5-5-5-5-5-


Questions, comments and corrections to nickmighall182@hotmail.com

Comments