Nofx - Murder The Government Chords & Tabs

 

Murder The Government Chords & Tabs

Nofx Chords & Tabs

Version: 2 Type: Bass Tab 0 ratings
1 star 2 stars 3 stars 4 stars 5 stars
comments

Murder The Government Bass Tab

   
-------------------------------------------------------------------------------
			     MURDER THE GOVERNMENT - NOFX
-------------------------------------------------------------------------------

Tabbed By : AkoA
e-mail: Bongsmokker@hotmail.com

Tuning: E,A,D,G

 Part 1

G|---------------------------------------------------------|
D|-------------------------------------2-2-----2-2---------|
A|-----9-9----9-7-----4-6----6-4---------------------------|
E|-7--7---7-7-----4--4----4-4-----0--0-----0-0-----2~------|

 Part 2
[ Tab from: http://www.guitartabs.cc/tabs/n/nofx/murder_the_government_btab_ver_2.html ]
G|---------------------------------------------------------|
D|---------------------------------------------------------|
A|---------------------------------------------------------|
E|-777777774444444400000000-2~-----------------------------|

G|---------------------------------------------------------|
D|---------------------------------------------------------|
A|---------------------------------------------------------|
E|-77777777444444440000000022222222------------------------|

End on
G|----------|
D|----------|
A|----------|
E|-7~-------|


Though this is my first tab, it is 100% corect... please rate it
Comments