Nofx - Moron Brothers Chords & Tabs

 

Moron Brothers Chords & Tabs

Nofx Chords & Tabs

Version: 2 Type: Tab 1 rating
1 star 2 stars 3 stars 4 stars 5 stars
comments

Moron Brothers Tab


								Moron Brothers (nofx)




Intro 1 (distortion)
E|-------|-------|-------|-------|
B|-------|-------|-------|-------|
G|-5-----|-7-5---|-5-7---|-7-5---|
D|-5-----|-7-5---|-5-7---|-7-5---|
A|-3-----|-5-3---|-3-5---|-5-3---|
E|-------|-------|-------|-------|




Intro 2 (distortion)
E|------------------------|------------------------|------------------------|------------------------|
B|------------------------|------------------------| -----------------------|------------------------|
G|--5--5----5--5--5----5--|------------------------|--7--7----7--7--7----7--|-10-10---10-10-10---10--|
D|--5--5----5--5--5----5--|--3--3----3--3--3----3--|--7--7----7--7--7----7--|-10-10---10-10-10---10--|
A|--3--3----3--3--3----3--|--3--3----3--3--3----3--|--5--5----5--5--5----5--|--8--8----8--8--8----8--|
E|------------------------|--1--1----1--1--1----1--|------------------------|------------------------|


E|-------------------------|------------------------|------------------------|------------------------|
B|-------------------------|------------------------|------------------------|------------------------|
G|--5--5----5--5--5----12--|-10-10---10-10-10----5--|--7--7----7--7--7----9--|-10-10---10-10-10---10--|
D|--5--5----5--5--5----12--|-10-10---10-10-10----5--|--7--7----7--7--7----9--|-10-10---10-10-10---10--|
A|--3--3----3--3--3----10--|--8--8----8--8--8----3--|--5--5----5--5--5----7--|--8--8----8--8--8----8--|
E|-------------------------|------------------------|------------------------|------------------------|




Vers 1 (palm muted)
E|--------------------------|--------------------------|--------------------------|--------------------------|
B|--------------------------|--------------------------|--------------------------|--------------------------|
G|--5--5--5--5--5--5--5--5--|--------------------------|--------------------------|--------------------------|
D|--5--5--5--5--5--5--5--5--|--5--5--5--5--5--5--5--5--|--3--3--3--3--3--3--3--3--|--5--5--5--5--5--5--5--5--|
A|--3--3--3--3--3--3--3--3--|--5--5--5--5--5--5--5--5--|--3--3--3--3--3--3--3--3--|--5--5--5--5--5--5--5--5--|
E|--------------------------|--3--3--3--3--3--3--3--3--|--1--1--1--1--1--1--1--1--|--3--3--3--3--3--3--3--3--|




Solo (guitar 2)
E|-----------------------|---------|-----------------------|---------|
B|------------8----------|---------|------------8----------|---------|
G|--5------9-----9----7--|--5------|--5------9-----9----8--|--7------|
D|-----------------------|---------|-----------------------|---------|
A|-----------------------|---------|-----------------------|---------|
E|-----------------------|---------|-----------------------|---------|


(Played with the solo)
E|--------------------------|--------------------------|--------------------------|--------------------------|
B|--------------------------|--------------------------|--------------------------|--------------------------|
G|--5--5--5--5--5--5--5--5--|--------------------------|--------------------------|--------------------------|
D|--5--5--5--5--5--5--5--5--|--5--5--5--5--5--5--5--5--|--3--3--3--3--3--3--3--3--|--5--5--5--5--5--5--5--5--|
A|--3--3--3--3--3--3--3--3--|--5--5--5--5--5--5--5--5--|--3--3--3--3--3--3--3--3--|--5--5--5--5--5--5--5--5--|
E|--------------------------|--3--3--3--3--3--3--3--3--|--1--1--1--1--1--1--1--1--|--3--3--3--3--3--3--3--3--|




Intro 3 (distortion)
E|------------------------|------------------------|------------------------|------------------------|
B|------------------------|------------------------|------------------------|------------------------|
G|--5--5----5--5--5----5--|--5--5----5--5-10----8--|--7--7----7--7-10----9--|--7--7----7--7-10----9--|
D|--5--5----5--5--5----5--|--5--5----5--5-10----8--|--7--7----7--7-10----9--|--7--7----7--7-10----9--|
A|--3--3----3--3--3----3--|--3--3----3--3--8----7--|--5--5----5--5--8----7--|--5--5----5--5--8----7--|
E|------------------------|------------------------|------------------------|------------------------|


E|------------------------|------------------------|------------------------|---------------------|
B|------------------------|------------------------|------------------------|---------------------|
G|--5--5----5--5-10----8--|--5--5----5--5-10----9--|--5--5----7--7--7----9--|-10-10---10-10----9--|
D|--5--5----5--5-10----8--|--5--5----5--5-10----9--|--5--5----7--7--7----9--|-10-10---10-10----9--|
A|--3--3----3--3--8----7--|--3--3----3--3--8----7--|--3--3----5--5--5----7--|--8--8----8--8----7--|
E|------------------------|------------------------|------------------------|---------------------|




Vers 1 (distortion + Palm muted)												 X 2
E|------------------------|----------------------------|------------------------|---------------------|
B|------------------------|----------------------------|------------------------|---------------------|
G|--5--5----5--5--5----5--|--3--3--3-3-3--3--3--3-3-3--|--5--5----5--5--5----5--|--5------------------|
D|--5--5----5--5--5----5--|--3--3--3-3-3--3--3--3-3-3--|--5--5----5--5--5----5--|--5----5----3--------|
A|--3--3----3--3--3----3--|--1--1--1-1-1--1--1--1-1-1--|--3--3----3--3--3----3--|--3----5----3--------|
E|------------------------|----------------------------|------------------------|-------3----1--------|




Solo 2 (guitar 2)
E|-----------------------|---------|-----------------------|----------|
B|------------8----------|---------|-----------------------|----------|
G|--5------9-----9----7--|--5------|--5----7----10----9----|--7-------|
D|-----------------------|---------|-----------------------|----------|
A|-----------------------|---------|-----------------------|----------|
E|-----------------------|---------|-----------------------|----------|


(Played with the solo)
E|--------------------------|--------------------------|--------------------------|--------------------------|
B|--------------------------|--------------------------|--------------------------|--------------------------|
G|--5--5--5--5--5--5--5--5--|--------------------------|--------------------------|--------------------------|
D|--5--5--5--5--5--5--5--5--|--5--5--5--5--5--5--5--5--|--3--3--3--3--3--3--3--3--|--5--5--5--5--5--5--5--5--|
A|--3--3--3--3--3--3--3--3--|--5--5--5--5--5--5--5--5--|--3--3--3--3--3--3--3--3--|--5--5--5--5--5--5--5--5--|
E|--------------------------|--3--3--3--3--3--3--3--3--|--1--1--1--1--1--1--1--1--|--3--3--3--3--3--3--3--3--|



[ Tab from: http://www.guitartabs.cc/tabs/n/nofx/moron_brothers_tab_ver_2.html ]
Vers 1 (distortion + Palm muted)												 X 2
E|------------------------|----------------------------|------------------------|---------------------|
B|------------------------|----------------------------|------------------------|---------------------|
G|--5--5----5--5--5----5--|--3--3--3-3-3--3--3--3-3-3--|--5--5----5--5--5----5--|--5------------------|
D|--5--5----5--5--5----5--|--3--3--3-3-3--3--3--3-3-3--|--5--5----5--5--5----5--|--5----5----3--------|
A|--3--3----3--3--3----3--|--1--1--1-1-1--1--1--1-1-1--|--3--3----3--3--3----3--|--3----5----3--------|
E|------------------------|----------------------------|------------------------|-------3----1--------|




Solo 3 (guitar 2)
E|-----------------------|---------|	
B|------------8----------|---------|
G|--5------9-----9----7--|--5------|
D|-----------------------|---------|
A|-----------------------|---------|
E|-----------------------|---------|


(Played with the solo)
E|--------------------------|--------------------------|
B|--------------------------|--------------------------|
G|--5--5--5--5--5--5--5--5--|--------------------------|
D|--5--5--5--5--5--5--5--5--|--5--5--5--5--5--5--5--5--|
A|--3--3--3--3--3--3--3--3--|--5--5--5--5--5--5--5--5--|
E|--------------------------|--3--3--3--3--3--3--3--3--|




Bridge                      
E|------------------------|---------------------|
B|------------------------|---------------------|
G|--5--5----7--7--7----9--|-10-10---10-10----9--|
D|--5--5----7--7--7----9--|-10-10---10-10----9--|
A|--3--3----5--5--5----7--|--8--8----8--8----7--|
E|------------------------|---------------------|




Refrain																	  X2
E|--------------------------|--------------------------|--------------------------|--------------------------|
B|--------------------------|--------------------------|--------------------------|--------------------------|
G|--5--5--5--5--5--5--5--5--|--------------------------|--------------------------|--------------------------|
D|--5--5--5--5--5--5--5--5--|--5--5--5--5--5--5--5--5--|--3--3--3--3--3--3--3--3--|--5--5--5--5--5--5--5--5--|
A|--3--3--3--3--3--3--3--3--|--5--5--5--5--5--5--5--5--|--3--3--3--3--3--3--3--3--|--5--5--5--5--5--5--5--5--|
E|--------------------------|--3--3--3--3--3--3--3--3--|--1--1--1--1--1--1--1--1--|--3--3--3--3--3--3--3--3--|


E|------------------------|------------------------|------------------------|------------------------|---------|
B|------------------------|------------------------|------------------------|------------------------|---------|
G|--x--5--5---------------|------------------------|--x--5--5---------------|------------------------|---------|
D|--x--5--5----x--5--5----|--x--3--3----3--3--3----|--x--5--5----x--5--5----|------------------------|--5------|
A|--x--3--3----x--5--5----|--x--3--3----3--3--3----|--x--3--3----x--5--5----|--3--3--3----3--3--3----|--5------|
E|-------------x--3--3----|--x--1--1----1--1--1----|-------------x--3--3----|--1--1--1----1--1--1----|--3------|


Bass solo......


Vers 2 distortion + palm mute)
E|------------------------|------------------------|------------------------|------------------------|
B|------------------------|------------------------| -----------------------|------------------------|
G|--5--5----5--5--5----5--|------------------------|--7--7----7--7--7----7--|-10-10---10-10-10---10--|
D|--5--5----5--5--5----5--|--3--3----3--3--3----3--|--7--7----7--7--7----7--|-10-10---10-10-10---10--|
A|--3--3----3--3--3----3--|--3--3----3--3--3----3--|--5--5----5--5--5----5--|--8--8----8--8--8----8--|
E|------------------------|--1--1----1--1--1----1--|------------------------|------------------------|


E|-------------------------|------------------------|------------------------|------------------------|
B|-------------------------|------------------------|------------------------|------------------------|
G|--5--5----5--5--5----12--|-10-10---10-10-10----5--|--7--7----7--7--7----9--|-10-10---10-10-10---10--|
D|--5--5----5--5--5----12--|-10-10---10-10-10----5--|--7--7----7--7--7----9--|-10-10---10-10-10---10--|
A|--3--3----3--3--3----10--|--8--8----8--8--8----3--|--5--5----5--5--5----7--|--8--8----8--8--8----8--|
E|-------------------------|------------------------|------------------------|------------------------|



E|----------------------|--------------------------|
B|----------------------|--------------------------|
G|--5----4----2---------|--------------------------|
D|--5----4----2----5----|--3--3--3--3--5--5--5--5--|
A|--3----2----0----5----|--3--3--3--3--5--5--5--5--|
E|-----------------3----|--1--1--1--1--3--3--3--3--|
				 P.m. .....................




Solo 3 (guitar 2)
E|-----------------------|---------|	
B|------------8----------|---------|
G|--5------9-----9----7--|--5------|
D|-----------------------|---------|
A|-----------------------|---------|
E|-----------------------|---------|


(Played with the solo)
E|--------------------------|--------------------------|
B|--------------------------|--------------------------|
G|--5--5--5--5--5--5--5--5--|--------------------------|
D|--5--5--5--5--5--5--5--5--|--5--5--5--5--5--5--5--5--|
A|--3--3--3--3--3--3--3--3--|--5--5--5--5--5--5--5--5--|
E|--------------------------|--3--3--3--3--3--3--3--3--|




Bridge                      
E|------------------------|---------------------|----------|
B|------------------------|---------------------|----------|
G|--5--5----7--7--7----9--|-10-10---10-10----9--|----------|
D|--5--5----7--7--7----9--|-10-10---10-10----9--|---5------|
A|--3--3----5--5--5----7--|--8--8----8--8----7--|---5------|
E|------------------------|---------------------|---3------|


Drums only............


Refrain (Distortion guitar)														  X 2		  
E|--------------------------|--------------------------|--------------------------|--------------------------|
B|--------------------------|--------------------------|--------------------------|--------------------------|
G|--5--5--5--5--5--5--5--5--|--------------------------|--------------------------|--------------------------|
D|--5--5--5--5--5--5--5--5--|--5--5--5--5--5--5--5--5--|--3--3--3--3--3--3--3--3--|--5--5--5--5--5--5--5--5--|
A|--3--3--3--3--3--3--3--3--|--5--5--5--5--5--5--5--5--|--3--3--3--3--3--3--3--3--|--5--5--5--5--5--5--5--5--|
E|--------------------------|--3--3--3--3--3--3--3--3--|--1--1--1--1--1--1--1--1--|--3--3--3--3--3--3--3--3--|


E|------------------------|------------------------|------------------------|---------------|
B|------------------------|------------------------|------------------------|---------------|
G|--x--5--5---------------|------------------------|--x--5--5---------------|---------------|
D|--x--5--5----x--5--5----|--x--3--3----3--3--3----|--x--5--5----x--5--5----|---------------|
A|--x--3--3----x--5--5----|--x--3--3----3--3--3----|--x--3--3----x--5--5----|--3--3---------|
E|-------------x--3--3----|--x--1--1----1--1--1----|-------------x--3--3----|--1--1---------|








Comments