Nofx - Moron Brothers Chords & Tabs

 

Moron Brothers Chords & Tabs

Nofx Chords & Tabs

Version: 1 Type: Tab 0 ratings
1 star 2 stars 3 stars 4 stars 5 stars
comments

Moron Brothers Tab

   
#----------------------------------PLEASE NOTE---------------------------------#
#This file is the author's own work and represents their interpretation of the #
#song. You may only use this file for private study, scholarship, or research. #
#------------------------------------------------------------------------------##
Date: Fri, 3 Nov 1995 19:09:42 -0700 (MST)
From: Rambozo 
Subject: MORON BROTHERS by NOFX


e-|---------------------------------------------|
B-|---------------------------------------------|
G-|-5------7-5---5-7---8-10--10-5---5-7---7-10--|
D-|-5------7-5---5-7---8-10--10-5---5-7---7-10--|
A-|-3------5-3---3-5---5--8---8-3---3-5---5--8--|
E-|---------------------------------------------|


e-|--------------------------------------------------------------------------|
B-|--------------------------------------------------------------------------|
G-|-5-5-5-5-5-5-5-5-----------------7-7-7-7-7-7-7-7-10-10-10-10-10-10-10-10--|
D-|-5-5-5-5-5-5-5-5-3-3-3-3-3-3-3-3-7-7-7-7-7-7-7-7-10-10-10-10-10-10-10-10--|
A-|-3-3-3-3-3-3-3-3-3-3-3-3-3-3-3-3-5-5-5-5-5-5-5-5--8--8--8--8--8--8--8--8--|
E-|-----------------1-1-1-1-1-1-1-1------------------------------------------|


Palm Mute--------------------------------|

e-|---------------------------------|
B-|---------------------------------|
G-|-5-5-5-5-------------------------|
D-|-5-5-5-5-5-5-5-5-3-3-3-3-5-5-5-5-|
A-|-3-3-3-3-5-5-5-5-3-3-3-3-5-5-5-5-|
E-|---------3-3-3-3-1-1-1-1-3-3-3-3-|

/=slide
e-|---------------------------|
B-|-----8-------------8-------|
G-|-5/9---9-8-7-5-5/9---9-8-7-|
D-|---------------------------|
A-|---------------------------|
E-|---------------------------|

e-|------------------------------------------------------------------
B-|------------------------------------------------------------------
G-|-5-5-x-5-5-x-5-5-x-5-10-9-7-7-7-10-9-7-7-7-10-9-5-5-5-10-9-5-5-5--
D-|-5-5-x-5-5-x-5-5-x-5-10-9-7-7-7-10-9-7-7-7-10-9-5-5-5-10-9-5-5-5--
A-|-3-3-x-3-3-x-3-3-x-3--8-7-5-5-5--8-7-5-5-5--8-7-3-3-3--8-7-3-3-3--
E-|------------------------------------------------------------------

e-|-------------------------------------|
B-|-------------------------------------|
G-|-10-10-10-10-5-5-7-7-10-10-10-10--9--|
D-|-10-10-10-10-5-5-7-7-10-10-10-10--9--|
A-|--8--8--8--8-3-3-5-5--8--8--8--8--7--|
E-|-------------------------------------|


e-|-------------------------------------------------------------------------
B-|-------------------------------------------------------------------------
G-|-5-5-5-5-5-5---------------5-5-5-5-5-5-9-7-5-5-5-5-5-5-5-----------------
D-|-5-5-5-5-5-5-3-3-3-3-3-3-3-5-5-5-5-5-5-9-7-5-5-5-5-5-5-5-3-3-3-3-3-3-3-3-
A-|-3-3-3-3-3-3-3-3-3-3-3-3-3-3-3-3-3-3-3-7-5-3-3-3-3-3-3-3-3-3-3-3-3-3-3-3-
E-|-------------1-1-1-1-1-1-1-------------------------------1-1-1-1-1-1-1-1-

e-|-------------------|
B-|-------------------|
G-|-5-5-5-5-5-5-9-7-5-|
D-|-5-5-5-5-5-5-9-7-5-|
A-|-3-3-3-3-3-3-7-5-3-|
E-|-------------------|

^=hammer on
e-|------------------------------|
B-|-----8------------------------|
G-|-5/9---9-8-7-5-----5-7-10-9-7-|
D-|---------------5^7------------|
A-|------------------------------|
E-|------------------------------|


e-|-------------------------------------------------------------------------
B-|-------------------------------------------------------------------------
G-|-5-5-5-5-5-5---------------5-5-5-5-5-5-9-7-5-5-5-5-5-5-5-----------------
D-|-5-5-5-5-5-5-3-3-3-3-3-3-3-5-5-5-5-5-5-9-7-5-5-5-5-5-5-5-3-3-3-3-3-3-3-3-
A-|-3-3-3-3-3-3-3-3-3-3-3-3-3-3-3-3-3-3-3-7-5-3-3-3-3-3-3-3-3-3-3-3-3-3-3-3-
E-|-------------1-1-1-1-1-1-1-------------------------------1-1-1-1-1-1-1-1-


e-|-------------------|
B-|-------------------|
G-|-5-5-5-5-5-5-9-7-5-|
D-|-5-5-5-5-5-5-9-7-5-|
A-|-3-3-3-3-3-3-7-5-3-|
E-|-------------------|

[ Tab from: http://www.guitartabs.cc/tabs/n/nofx/moron_brothers_tab.html ]
e-|----------------------------------------|
B-|-----8----------------------------------|
G-|-5/9---9-8-7-5-5-5-x-7-7-x-10-10-x-10-9-|
D-|---------------5-5-x-7-7-x-10-10-x-10-9-|
A-|---------------3-3-x-5-5-x--8--8-x--8-7-|
E-|----------------------------------------|


e-|-----------------------------------------------------------------
B-|-----------------------------------------------------------------
G-|-5-5-5-5-5-5-5-5-------------------------------------------------
D-|-5-5-5-5-5-5-5-5-5-5-5-5-5-5-5-5-3-3-3-3-3-3-3-3-5-5-5-5-5-5-5-5-
A-|-3-3-3-3-3-3-3-3-5-5-5-5-5-5-5-5-3-3-3-3-3-3-3-3-5-5-5-5-5-5-5-5-
E-|-----------------3-3-3-3-3-3-3-3-1-1-1-1-1-1-1-1-3-3-3-3-3-3-3-3-

e-|-----------------------------------------------------------------
B-|-----------------------------------------------------------------
G-|-5-5-5-5-5-5-5-5-------------------------------------------------
D-|-5-5-5-5-5-5-5-5-5-5-5-5-5-5-5-5-3-3-3-3-3-3-3-3-5-5-5-5-5-5-5-5-
A-|-3-3-3-3-3-3-3-3-5-5-5-5-5-5-5-5-3-3-3-3-3-3-3-3-5-5-5-5-5-5-5-5-
E-|-----------------3-3-3-3-3-3-3-3-1-1-1-1-1-1-1-1-3-3-3-3-3-3-3-3-

e-|--------------------------------------------------------------|
B-|--------------------------------------------------------------|
G-|-5-5-x------------------------5-5-x---------------------------|
D-|-5-5-x-5-5-x-3-3-x-3-3-x-3-3--5-5-x-5-5-x-3-3-x-3-3-x-3-3--5--|
A-|-3-3-x-5-5-x-3-3-x-3-3-x-3-3--3-3-x-5-5-x-3-3-x-3-3-x-3-3--5--|
E-|-------3-3-x-1-1-x-1-1-x-1-1--------3-3-x-1-1-x-1-1-x-1-1--3--|

do do do do do do etc.

e-|--------------------------------------------------------------------------|
B-|--------------------------------------------------------------------------|
G-|-5-5-5-5-5-5-5-5-----------------7-7-7-7-7-7-7-7-10-10-10-10-10-10-10-10--|
D-|-5-5-5-5-5-5-5-5-3-3-3-3-3-3-3-3-7-7-7-7-7-7-7-7-10-10-10-10-10-10-10-10--|
A-|-3-3-3-3-3-3-3-3-3-3-3-3-3-3-3-3-5-5-5-5-5-5-5-5--8--8--8--8--8--8--8--8--|
E-|-----------------1-1-1-1-1-1-1-1------------------------------------------|

e-|--------------------------------------------------------------------------|
B-|--------------------------------------------------------------------------|
G-|-5-5-5-5-5-5-5-5-----------------7-7-7-7-7-7-7-7-10-10-10-10-10-10-10-10--|
D-|-5-5-5-5-5-5-5-5-3-3-3-3-3-3-3-3-7-7-7-7-7-7-7-7-10-10-10-10-10-10-10-10--|
A-|-3-3-3-3-3-3-3-3-3-3-3-3-3-3-3-3-5-5-5-5-5-5-5-5--8--8--8--8--8--8--8--8--|
E-|-----------------1-1-1-1-1-1-1-1------------------------------------------|

e-|---------------------------------|
B-|---------------------------------|
G-|-5-5-4-4-2-2---------------------|
D-|-5-5-4-4-2-2-5-5-3-3-3-3-5-5-5-5-|
A-|-3-3-2-2-0-0-5-5-3-3-3-3-5-5-5-5-|
E-|-------------3-3-1-1-1-1-3-3-3-3-|


e-|---------------------------------------|
B-|-----8---------------------------------|
G-|-5/9---9-8-7-5-------5-5-5-7-7-10-10-9-|
D-|---------------7-5^7---5-5-7-7-10-10-9-|
A-|-----------------------3-3-5-5--8--8-7-|
E-|---------------------------------------|




they are the moron brothers...don't get along with others...





e-|-----------------------------------------------------------------|
B-|-----------------------------------------------------------------|
G-|-5-5-5-5-5-5-5-5-------------------------------------------------|
D-|-5-5-5-5-5-5-5-5-5-5-5-5-5-5-5-5-3-3-3-3-3-3-3-3-5-5-5-5-5-5-5-5-|
A-|-3-3-3-3-3-3-3-3-5-5-5-5-5-5-5-5-3-3-3-3-3-3-3-3-5-5-5-5-5-5-5-5-|
E-|-----------------3-3-3-3-3-3-3-3-1-1-1-1-1-1-1-1-3-3-3-3-3-3-3-3-|

e-|-----------------------------------------------|
B-|-----------------------------------------------|
G-|-5-5-x------------------------5-5-x------------|
D-|-5-5-x-5-5-x-3-3-x-3-3-x-3-3--5-5-x-5-5-x-3----|
A-|-3-3-x-5-5-x-3-3-x-3-3-x-3-3--3-3-x-5-5-x-3----|
E-|-------3-3-x-1-1-x-1-1-x-1-1--------3-3-x-1/14-|


I hope i didn't make any mistakes tabbing this stupid thing out... it 
took forever to do... have fun


Comments