Nofx - Mean People Suck Chords & Tabs

 

Mean People Suck Chords & Tabs

Nofx Chords & Tabs

Version: 2 Type: Bass Tab 0 ratings
1 star 2 stars 3 stars 4 stars 5 stars
comments

Mean People Suck Bass Tab

NoFX
Mean people suck.
S&M AIRLINES.
Tab. By Esteban Varela Martínez, e-mail: jlvarela@santandersupernet.com


Figure 1:

|----------------|
|----------------|
|---------2-----|
|--0-4-5-5--|

Figure 2:

|----------|
|----------|
|----------|
|--0-0-0-|

Figure 3:

|---------------------|
|---------------------|
|---------------------|
|---0-0-3-0-3-5-0-|

Figure 4:

|--------------------------------|
|--------------------------------|
|--------------------------------|
|--0-0-0-0-0-12-12-12-12--|
                   |----Harm.---|

Figure 5:

|---------------------|
|---------------------|
|----------2---------|
|--0-3-5---5-3-0--|

Figure 6:
[ Tab from: http://www.guitartabs.cc/tabs/n/nofx/mean_people_suck_btab_ver_2.html ]
|---------------------------------------------|
|--------------------14-14-14-17-17-17--|
|---------------------------------------------|
|--0-0-0-0-0-0...---------------------------|

Figure 7:

|-----------------------|
|---------------5/14---|
|------------------------|
|--0-0-0-0-0...--------|

Figure 8:

|-------------------------------14----------|
|-----------------5/14-14-17-----17-14--|
|--------------------------------------------|
|--0-0-0-0-0...----------------------------|


I don´t tab the rhythm because it´s so fast. The song goes:

Figure 1.-Many times.
Figure 2.            | 
Figure 3.            |
Figure 2.            |
Figure 4.            |
Figure 2.            |
Figure 5.            |
Figure 6.            |
Figure 7.            |
Figure 8.            |


It can be some mistakes because I tab it so fast. E-Mail me : jlvarela@santandersupernet.com
Comments