Nofx - Man I Killed Chords & Tabs

 

Man I Killed Chords & Tabs

Nofx Chords & Tabs

Version: 2 Type: Tab

Man I Killed Tab

-------------------------------------------------------------------------------
			     
The Man I Killed-
Wolves in Wolves Clothing 
Nofx
This is a really easy but awesome and fun song to play.
please email me if you have any comments or concerns

Tabbed by:Bcbassmasta02
Email:bcpacker90@yahoo.com

Tuning:normal


Intro/Verse(acoustic)
e|---------------------------------------------------------|        
B|---------------------------------------------------------|        
G|------------5555----------4444----------5555---7777------|        
D|--5555555---5555---5555---4444---2222---5555---7777------|        
A|--5555555---3333---5555---2222---2222---3333---5555------|        
E|--3333333----------3333----------0000--------------------|

e|---------------------------------------------|        |-------|
B|---------------------------------------------|        |-------|
G|------------5555----------4444--5555---------|        |-------|
D|--5555555---5555---5555---4444--5555--5555---|        |-5-4-2-|
A|--5555555---3333---5555---2222--3333--5555---|        |-5-4-2-|
E|--3333333----------3333---------------3333---|then... |-3-2-0-|

                                   

[ Tab from: http://www.guitartabs.cc/tabs/n/nofx/man_i_killed_tab_ver_2.html ]
Chorus
e|-----------------------------------------------------------------|
B|-----------------------------------------------------------------|
G|------999--55555-------------------------------------------------|
D|-222--999--55555-55555-44444---5-4-2-----------------------------|
A|-222--777--33333-55555-44444---5-4-0-----------------------------|
E|-000-------------33333-22222---3-2-0-----------------------------|x2

Chorus Outro
e|---------------------------------|
B|---------------------------------|
G|--------555555-7777777777--------|
D|-222222-555555-7777777777--------|
A|-222222-333333-5555555555--------|
E|-000000--------------------------|
"He was Gone....."

Verse 2
Chorus


Outro/Solo thingy
e------10-10-10--7-7h8-7------------7-7-7--7-7h8-7--------------|
H-------------------------10-8----8----------------10-8---------|
G-0--0----------------------------------------------------------|
D------------------------------0--------------------------------|
A---------------------------------------------------------------|
E---------------------------------------------------------------|



again if you have any comments, email me
have fun bitches!!
============================================================================