Nofx - Malichi Crunch Chords & Tabs

 

Malichi Crunch Chords & Tabs

Nofx Chords & Tabs

Version: 1 Type: Bass Tab 0 ratings
1 star 2 stars 3 stars 4 stars 5 stars
comments

Malichi Crunch Bass Tab

   
--------------------------------
Malichi crunch / NOFX
---------------------------------

Part A(intro)
g]-------------------------------------------------------
d]-------------------------------------------------------
a]-4-4-4-4-4-4-4-4-4-4---------------------4-4-4-4-4-4-4-
e]---------------------5-5-5-5-5-5-5-5-5-5---------------

g]--------------------------]
d]--------------------------]
a]-6-7----------------------] 2 times
e]-----4-5-5-5-5-5-5-5-5-5-5]
[ Tab from: http://www.guitartabs.cc/tabs/n/nofx/malichi_crunch_btab.html ]
Part B(verse)
g]------------------------][------------------------------
d]------------------------][------------------------------
a]-4-4-4-4-4-4-2-2-2-2-2-2][-4-4-4-4-4-4-2-2-2-2-2-2-0-0--
e]------------------------][------------------------------

g]-------------]
d]-------------]
a]-0-0-2-2-2-2-]4 times
e]-------------]

Part C
g]-----------------------------------]
d]-----------------------------------]
a]-4-----4-4-4----------------------4]2 times
e]-------------0-2-----2----0-0-0-2--]

Part B

Part C

g]-----------------------------] strumming pattern
d]-----------------------------] will change but same notes
a]4-4-4-4-7-6------------------] play 4 times
e]------------7---5-5-5-5-4-2-0]

Part A Part B Part C (4 times end)




Comments