Nofx - Malachi Crunch Chords & Tabs

 

Malachi Crunch Chords & Tabs

Nofx Chords & Tabs

Version: 2 Type: Tab 0 ratings
1 star 2 stars 3 stars 4 stars 5 stars
comments

Malachi Crunch Tab

Song: The Malachi Crunch
Artist: Nofx
Album: Ribbed
Tabbed By: Justin Barkley
Contact me on AIM MSN or Yahoo screen name = RedSquirrel
this is the best nofx song probably EVER... easily off from the
ribbed album. it took a while but here you go. and good luck!


Intro: Gtr1: play 14 times 
E |----------------------------------------------------------------| 
B |----------------------------------------------------------------| 
G |----------------------------------------------------------------| 
D |----------------------------------------------------------------| 
A |--4-4-7-4-4-4-6-4-4-4-7-4-6-4-----------------------------------| 
E |----------------------------------------------------------------| 

Intro: Gtr2:  come in the 9th time the first guitar plays riff 1. 
E |----------------------------------------------------------------| 
B |----------------------------------------------------------------| 
G |--6\------------6--8--9\-------------6\-------------------------| 
D |----------------------------------------------------------------| 
A |----------------------------------------------------------------| 
E |----------------------------------------------------------------| 

Verse 1: Gtr1: 
E |-----------------------------------------------|--------------------------| 
B |-----------------------------------------------|--------------------------| 
G |-2-2-2-2-2--4-4-4-4-4--6-6-6-6-6-6-6-6-6-6-----|-2-2-2-2-2--4-4-4-4-4-----| 
D |-2-2-2-2-2--4-4-4-4-4--6-6-6-6-6-6-6-6-6-6-x4--|-2-2-2-2-2--4-4-4-4-4-once|
A |-0-0-0-0-0--2-2-2-2-2--4-4-4-4-4-4-4-4-4-4-then|-0-0-0-0-0--2-2-2-2-2-----|
E |--------------------------------------|-----------------------------------|

  Verse 1: Gtr2: 
E |---------------|------------------------------------------------| 
B |---------------|------------------------------------------------| 
G |-6-8-9-8-6-8---|------2-2-2-2-2--4-4-4-4-4----------------------|
D |-------------x4|------2-2-2-2-2--4-4-4-4-4----------------------| 
A |-4-6-7-6-4-6---|------0-0-0-0-0--2-2-2-2-2----------------------| 
E |---------------|------------------------------------------------|
then: 
E |---------------|------------------------------------------------|
B |---------------|------------------------------------------------|
G |-6-8-9-8-6-8---|-------2-2-2-2-2--4-4-4-4-4---------------------|
D |-------------x2|-------2-2-2-2-2--4-4-4-4-4---------------------|
A |-4-6-7-6-4-6---|-------0-0-0-0-0--2-2-2-2-2---------------------|x3
E |---------------|------------------------------------------------|

Bridge:
Gtr1: with lots of distortion this sounds like it. it's hard to hear.
Gtr2 sounds as though it plays the same thing... i hear some hammers 
and pull offs but its so fast it's hard to make out the notes.
E |----------------------------------------------------------------|
B |----------------------------------------------------------------|
G |-6-----4p0-----------4/6-6-----4p0----4-6-----------------------|
D |-6-----4p0-2---------4/6-6-----4p0--2-4-6-----------------------|
A |-4-444-2p0-2-222-0h2-2/4-4-444-2p0--2-2-4-----------------------|
E |-----------0-000--------------------0---------------------------|

Verse 2: Gtr1: first time
E |----------------------------------------------------------------|
B |----------------------------------------------------------------|
G |-6-6-6-6-6-6-6-6-6-6--2-2-2-2-2--4-4-4-4-4----------------------|
D |-6-6-6-6-6-6-6-6-6-6--2-2-2-2-2--4-4-4-4-4----------------------|
A |-4-4-4-4-4-4-4-4-4-4--0-0-0-0-0--2-2-2-2-2----------------------|
E |----------------------------------------------------------------|
then:
E |----------------------------------------------------------------|
B |----------------------------------------------------------------|
G |-6-6-6-6-6--4-4-4-4-4--2-2-2-2-2--4-4-4-4-4---------------------|
D |-6-6-6-6-6--4-4-4-4-4--2-2-2-2-2--4-4-4-4-4----x3---------------|
A |-4-4-4-4-4--2-2-2-2-2--0-0-0-0-0--2-2-2-2-2---------------------|
E |----------------------------------------------------------------|

Verse 2: Gtr 2: play 4 times
E |---------------|------------------------------------------------|
B |---------------|------------------------------------------------|
G |-6-8-9-8-6-8---|-------2-2-2-2-2--4-4-4-4-4---------------------|
D |-------------x2|-------2-2-2-2-2--4-4-4-4-4---------------------|
A |-4-6-7-6-4-6---|-------0-0-0-0-0--2-2-2-2-2---------------------|
E |---------------|------------------------------------------------|
[ Tab from: http://www.guitartabs.cc/tabs/n/nofx/malachi_crunch_tab_ver_2.html ]
Bridge 2: same as first time.
E |----------------------------------------------------------------|
B |----------------------------------------------------------------|
G |-6-----4p0-----------4/6-6-----4p0----4-6-----------------------|
D |-6-----4p0-2---------4/6-6-----4p0--2-4-6-----------------------|
A |-4-444-2p0-2-222-0h2-2/4-4-444-2p0--2-2-4-----------------------|
E |-----------0-000--------------------0---------------------------| 
Verse 3: Gtr1: listen for timing. 
E |---------------------|-------------------|-------------------------|
B |---------------------|-------------------|-------------------------|
G |--------66666--------|-9-8---------------|-6-6-9-8-----------------|
D |-77777--66666--77777-|-9-8-9---7-7-6-4-2-|-6-6-9-8-9---7-7-6-4-2---|
A |-77777--44444--77777-|-7-6-9---7-7-6-4-2-|-4-4-7-6-9---7-7-6-4-2---|
E |-55555---------55555-|-----7---5-5-4-2-0-|---------7---5-5-4-2-0---| 
Gtr2:
E |---------------------|-------------------|-------------------------|
B |---------------------|-------------------|-------------------------|
G |---------6-9-8-------|-9-8---------------|-6-6-9-8-----------------|
D |-7-6-4-2-6-9-8-9-----|-9-8-9---7-7-6-4-2-|-6-6-9-8-9---7-7-6-4-2-x2|
A |-7-6-4-2-4-7-6-9-----|-7-6-9---7-7-6-4-2-|-4-4-7-6-9---7-7-6-4-2---|
E |-5-4-2-0-------7-----|-----7---5-5-4-2-0-|---------7---5-5-4-2-0---|
 pm.....................
then
Gtr 1&2 play:  
E |-------------------------------------------------------------------|
B |-------------------------------------------------------------------|
G |-66666666-9999-88--------------------------------------------------|
D |-66666666-9999-88-9-77777-666-444-2---x2---------------------------|
A |-44444444-7777-66-9-77777-666-444-2--------------------------------|
E |------------------7-55555-444-222-0--------------------------------|
pm.................................... 
Intro Riff:
Gtr.1:
E |---------------------|-------------------------------------------| 
B |---------------------|-------------------------------------------| 
G |---------------------|-------------------------------------------| 
D |---------------------|-------------------------------------------| 
A |44444444444444444444-|-4-4-7-4-4-4-6-4-4-4-7-4-6-4 x12-----------| 
E |---------------------|-------------------------------------------| 

Gtr 2: listen closely you'll hear gtr 2 palm muting the root notes 16x each
E |---------------------|-------------------------------------------| 
B |---------------------|-------------------------------------------| 
G |---------------------|-------------------------------------------| 
D |---------------------|-------------------------------------------| 
A |44444444444444444444-|-4x16--7x16--4x16--------------------------| 
E |---------------------|-------------------------------------------|
then Gtr 2 plays:
E |----------------------------------------------------------------| 
B |----------------------------------------------------------------| 
G |--6\-----------6--8--9\------------9--8--9-6\-------------------| 
D |------xxxxxxxx----------xxxxxxxx--------------------------------| 
A |------xxxxxxxx----------xxxxxxxx--------------------------------| 
E |------xxxxxxxx----------xxxxxxxx--------------------------------|

Verse 4:
Gtr1:
E |-------------------------------------------------------------------------| 
B |-------------------------------------------------------------------------| 
G |-2-2-2-2-2--4-4-4-4-4--6-6-6-6-6-6-6-6-6-6--2-2-2-2-2--4-4-4-4-4---------| 
D |-2-2-2-2-2--4-4-4-4-4--6-6-6-6-6-6-6-6-6-6--2-2-2-2-2--4-4-4-4-4---------|
A |-0-0-0-0-0--2-2-2-2-2--4-4-4-4-4-4-4-4-4-4--0-0-0-0-0--2-2-2-2-2---------|
E |-------------------------------------------------------------------------|
then
E |----------------------------------------------------------------|
B |----------------------------------------------------------------|
G |-6-6-6-6-6--4-4-4-4-4--2-2-2-2-2--4-4-4-4-4---------------------|
D |-6-6-6-6-6--4-4-4-4-4--2-2-2-2-2--4-4-4-4-4----x3---------------|
A |-4-4-4-4-4--2-2-2-2-2--0-0-0-0-0--2-2-2-2-2---------------------|
E |----------------------------------------------------------------|

Gtr 2:
E |---------------|------------------------------------------------|
B |---------------|------------------------------------------------|
G |-6-8-9-8-6-8---|------2-2-2-2-2--4-4-4-4-4----------------------|
D |-------------x4|------2-2-2-2-2--4-4-4-4-4----------------------| 
A |-4-6-7-6-4-6---|------0-0-0-0-0--2-2-2-2-2----------------------| 
E |---------------|------------------------------------------------|
then 
E |---------------|------------------------------------------------|
B |---------------|------------------------------------------------|
G |-6-8-9-8-6-8---|-------2-2-2-2-2--4-4-4-4-4---------------------|
D |-------------x2|-------2-2-2-2-2--4-4-4-4-4---------------------|
A |-4-6-7-6-4-6---|-------0-0-0-0-0--2-2-2-2-2---------------------|x3
E |---------------|------------------------------------------------|

Outro: same as bridge
E |----------------------------------------------------------------|
B |----------------------------------------------------------------|
G |-6-----4p0-----------4/6-6-----4p0----4-6-----------------------|
D |-6-----4p0-2---------4/6-6-----4p0--2-4-6---------x2------------|
A |-4-444-2p0-2-222-0h2-2/4-4-444-2p0--2-2-4-----------------------|
E |-----------0-000--------------------0---------------------------|
Comments