Nofx - Love Story Chords & Tabs

 

Love Story Chords & Tabs

Nofx Chords & Tabs

Version: 1 Type: Bass Tab 0 ratings
1 star 2 stars 3 stars 4 stars 5 stars
comments

Love Story Bass Tab

NOFX- love story

G|---------------------------------------------|
D|---------------------------------------------|
A|---------3-3-3-5-5-5-5---------3-3-3-1-1-1-1-|
E|-1-1-1-1---------------1-1-1-1---------------|
[ Tab from: http://www.guitartabs.cc/tabs/n/nofx/love_story_btab.html ]
G|-----------------------------------|
D|-----------------------------------|
A|---------3-3-3-------1-1-1-3-3-3-3-|
E|-1-1-1-1-------3-3-3---------------|

Chorus:
G|-------------------------|
D|-------------------------|
A|-4-4-4-4-4-4-------------|
E|-------------1-1-1-1-1-1-|

the chorus(' I don't wanna know'....part) maybe wrong, but none of the 
tabs here are correct about that part

If there are anny problems, leave me alone
'S.O.H' Bert
Comments