Nofx - Lori Meyers Chords & Tabs

 

Lori Meyers Chords & Tabs

Nofx Chords & Tabs

Version: 2 Type: Tab 0 ratings
1 star 2 stars 3 stars 4 stars 5 stars
comments

Lori Meyers Tab

LORI MEYERS - NOFX

By: PaT "The TaBMaStEr" BiL
e-mail: patrick_bilodeau@hotmail.com

INTRO
Guitar 1                                                                     
e|---------------------------------------------------------------------------|
B|---------------------------------------------------------------------------|
G|--7-7-7----9-9-9----11-11-11-11-11-----7-7-7----9-9-9----11-11-11-11-11----|
D|--x-x-x----x-x-x-----x--x--x--x--x-----x-x-x----x-x-x-----x--x--x--x--x----|
A|--5-5-5----7-7-7-----9--9--9--9--9-----5-5-5----7-7-7-----9--9--9--9--9----|
E|---------------------------------------------------------------------------|
									      
Guitar 2								      
e|---------------------------------------------------------------------------|
B|---------------------------------------------------------------------------|
G|---------------------------------------------------------------------------|
D|--9------------------------------------5-----------------------------------|
A|--9------------------------------------5-----------------------------------|
E|--7------------------------------------3-----------------------------------|
									      
Guitar 1								      
e|---------------------------------------------------------------------------|
B|---------------------------------------------------------------------------|
G|--6-6-6----7-7-7----9-9-9-9-9----6-6-6----7-7-7----15-15-15-15-15----------|
D|--x-x-x----x-x-x----x-x-x-x-x----x-x-x----x-x-x----x--x--x--x--x-----------|
A|--4-4-4----5-5-5----7-7-7-7-7----4-4-4----5-5-5----13-13-13-13-13----------|
E|---------------------------------------------------------------------------|
									      
Guitar 2								      
e|---------------------------------------------------------------------------|
B|---------------------------------------------------------------------------|
G|---------------------------------------------------------------------------|
D|--7-------------------------------4----------------------------------------|
A|--7-------------------------------4----------------------------------------|
E|--5-------------------------------2----------------------------------------|
									     
Verse (0:09 min)
                       |1st end||2nd end||3rd end||4th end|
e|----------------------|-----|-----------|-----|----------------------------|
B|----------------------|-----|-----------|-----|----------------------------|
G|--------12---------7--|--7--|-----------|-----|----------------------------|
D|--9--7--12--12--7--7--|--4--|--4--4--4--|--4--|--4--4--4-------------------|
A|--9--7--10--9---7--5--|-----|--2--2--2--|--4--|--2--2--2-------------------|
E|--7--5----------5-----|-----|--0--0--0--|--2--|--0--0--0-------------------|

Verse (o:56 min)
|P-M| = Palm mute
  3X            1X           3X           1X           3X
e|------------|------------|------------|------------|-----------|-----------|
B|------------|------------|------------|------------|-----------|-----------|
G|------------|------------|------------|------------|-----------|-------7-7-|
D|--9-9--9-9--|--7-7--7-7--|--5-5--5-5--|------------|--7-7--7-7-|-7-7-7-7--4|
A|--9-9--9-9--|--7-7--7-7--|--5-5--5-5--|--5-5--5-5--|--7-7--7-7-|-7-7-7-5---|
E|--7-7--7-7--|--5-5--5-5--|--3-3--3-3--|--2-2--2-2--|--5-5--5-5-|-5-5-5-----|
   |P-M|        |P-M|        |P-M|        |P-M|        |P-M|       |-P-M-|

e|---------------------------3-----------------------------------------------|
B|---------------------------3-----------------------------------------------|
G|--------12---------7-------4-----------------------------------------------|
D|--9--7--12--12--7--7--9----5----7----4-------------------------------------|
A|--9--7--10--9---7--5--9----5----7----4-------------------------------------|
E|--7--5----------5-----7----3----5----2-------------------------------------|
[ Tab from: http://www.guitartabs.cc/tabs/n/nofx/lori_meyers_tab_ver_2.html ]
OUTRO (1:37 min)
Guitar 1								     
e|---------------------------------------------------------------------------| 
B|---------------------------------------------------------------------------| 
G|--7-7-7----9-9-9----11-11-11-11-11-----7-7-7----9-9-9----11-11-11-11-11----|  
D|--x-x-x----x-x-x-----x--x--x--x--x-----x-x-x----x-x-x-----x--x--x--x--x----| 
A|--5-5-5----7-7-7-----9--9--9--9--9-----5-5-5----7-7-7-----9--9--9--9--9----| 
E|---------------------------------------------------------------------------| 
									       
Guitar 2								       
e|---------------------------------------------------------------------------| 
B|---------------------------------------------------------------------------| 
G|---------------------------------------------------------------------------| 
D|--9------------------------------------5-----------------------------------| 
A|--9------------------------------------5-----------------------------------| 
E|--7------------------------------------3-----------------------------------| 
									       
Guitar 1								       
e|---------------------------------------------------------------------------| 
B|---------------------------------------------------------------------------| 
G|--6-6-6----7-7-7----9-9-9-9-9----6-6-6----7-7-7----15-15-15-15-15----------| 
D|--x-x-x----x-x-x----x-x-x-x-x----x-x-x----x-x-x----x--x--x--x--x-----------| 
A|--4-4-4----5-5-5----7-7-7-7-7----4-4-4----5-5-5----13-13-13-13-13----------| 
E|---------------------------------------------------------------------------| 
									       
Guitar 2								       
e|---------------------------------------------------------------------------| 
B|---------------------------------------------------------------------------| 
G|---------------------------------------------------------------------------| 
D|--7------------------------------4-----------------------------------------| 
A|--7------------------------------4-----------------------------------------| 
E|--5------------------------------2-----------------------------------------| 
									          
Guitar 1								       
e|---------------------------------------------------------------------------| 
B|---------------------------------------------------------------------------| 
G|--7-7-7----9-9-9----11-11-11-9-9-----7-7-7----9-9-9----11-11-11-11-11------| 
D|--x-x-x----x-x-x-----x--x--x-x-x-----x-x-x----x-x-x-----x--x--x--x--x------| 
A|--5-5-5----7-7-7-----9--9--9-7-7-----5-5-5----7-7-7-----9--9--9--9--9------| 
E|---------------------------------------------------------------------------| 
									       
Guitar 2								       
E|---------------------------------------------------------------------------| 
e|---------------------------------------------------------------------------| 
B|---------------------------------------------------------------------------| 
G|------------------------------------7--------------------------------------| 
D|--9---------------------------------7--------------------------------------| 
A|--9---------------------------------5--------------------------------------| 
E|--7------------------------------------------------------------------------| 
									       
Guitar 1								       
e|---------------------------------------------------------------------------| 
B|---------------------------------------------------------------------------| 
G|--6-6-6----7-7-7----9-9-9-9-9----6-7-7-7----15-15-15-----------------------| 
D|--x-x-x----x-x-x----x-x-x-x-x----x-x-x-x-----x--x--x-----------------------| 
A|--4-4-4----5-5-5----7-7-7-7-7----4-5-5-5----13-13-13-----------------------| 
E|---------------------------------------------------------------------------| 
									       
Guitar 2								       
e|---------------------------------------------------------------------------| 
B|---------------------------------------------------------------------------| 
G|--15-----------------------------12---------11-----------------------------| 
D|--15-----------------------------12---------11-----------------------------| 
A|--12-----------------------------10----------9-----------------------------| 
E|---------------------------------------------------------------------------|
Comments