Nofx - Lori Meyers Chords & Tabs

 

Lori Meyers Chords & Tabs

Nofx Chords & Tabs

Version: 2 Type: Bass Tab 0 ratings
1 star 2 stars 3 stars 4 stars 5 stars
comments

Lori Meyers Bass Tab

#----------------------------------PLEASE NOTE---------------------------------#
#This file is the author's own work and represents their interpretation of the #
#song. You may only use this file for private study, scholarship, or research. #
#------------------------------------------------------------------------------#

INTRO
G--------------------------------------
D--------------------------------------
A--------------------------------------
E--7-7-7-7--3-3-3-3--5-5-5-5--2-2-2-2--

VERSE1
G--------------------------------------
D--------------------------------------
A-----------------------------5-5-5-9--
E--7-7-7-5--3-3-3-2--5-5-5-5-----------

VERSE2
G------------------------------------------------
D------------------------------------------------
A-----------------------------5-5-5-9*-9*-9*-9*--
E--7-7-7-5--3-3-3-2--5-5-5-5---------------------
[ Tab from: http://www.guitartabs.cc/tabs/n/nofx/lori_meyers_btab_ver_2.html ]
VERSE3
G--------------------------------------
D--------------------------------------
A--------------------------------------
E--7-7-7-5--3-3-3-2--5-5-5-5--2-2-2-2--

Then play VERSE2

BRIDGE
G--------------------------------------*---------------------------------------
D--------------------------------------*---------------------------------------
A-----------------------------5-5-5-5--*-----------------------------5-5-5--9--
E--7-7-7-5--3-3-3-2--5-5-5-5-----------*--7-7-7-5--3-3-3-2--5-5-5-5------------

VERSE4
G--------------------------------------
D--------------------------------------
A-----------------------------5-5-5-5--
E--7-7-7-5--3-3-3-2--5-5-5-5-----------

VERSE5
G--------------------------------------
D--------------------------------------
A--------------------------------------
E--7-7-7-7--3-3-3-3--5-5-5-5--2-2-2-2--

OUTRO
G----------------------------------------
D----------------------------------------
A-----------5-5-5-5--12-12-12-12--10--9--
E--7-7-7-7-------------------------------


For questions: mc_call@email.it
Comments