Nofx - Longest Line Chords & Tabs

 

Longest Line Chords & Tabs

Nofx Chords & Tabs

Version: 2 Type: Tab 0 ratings
1 star 2 stars 3 stars 4 stars 5 stars
comments

Longest Line Tab

   
-------------------------------------------------------------------------------
			     Longest Line - Nofx
-------------------------------------------------------------------------------
Tabbed by:Nick-182

Email:who_nicked_the_boy@hotmail.com

Note:I know its not perfect but....By the way on the solo you
can bend the strings at the end instead of sliding up to ten.

Tuning:Standard

Intro bit

e|--------------------------3-------------------------------------------------------|
B|5-------------1-------1---0-------------------------------------------------------|
G|5------4------2-------2---0-------------------------------------------------------|
D|5------5------2-------2---0-------------------------------------------------------|
A|3------5------0-------0---2-------------------------------------------------------|
E|-------3------------------3-------------------------------------------------------|

Next thingy

e|-------3------1-------------3-----------------------------------------------------|
B|5------3------1------1------0-----------------------------------------------------|
G|5------4------2------2------0-----------------------------------------------------|
D|5------5------3------2------0-----------------------------------------------------|
A|3------5------3------0------2-----------------------------------------------------|
E|-------3------1-------------3-----------------------------------------------------|

Thingy
[ Tab from: http://www.guitartabs.cc/tabs/n/nofx/longest_line_tab_ver_2.html ]
e|1------3------0------1-----------------------------------------------------------|
B|1------0------1------3-----------------------------------------------------------|
G|2------0------2------4-----------------------------------------------------------|
D|3------0------2------5-----------------------------------------------------------|
A|3------2------0------------------------------------------------------------------|
E|1------3-------------------------------------------------------------------------|

Chorus

e|----------------------------1------0------2------1------0-----------------------------|
B|----------------------------1------1------3------1------1-----------------------------|
G|5-------------2------0------2------0------2------2------0-----------------------------|
D|5------5------2------2------3------2------0------3------2-----------------------------|
A|3------5------0------2------3------3-------------3------3-----------------------------|
E|-------3-------------0------1--------------------1------------------------------------|

Solo

e|--------------------------------------------8------8----------|
B|------------------------------6-5----8-8\10---8\10---8~~~~~~--|
G|----------------------------5-----5---------------------------|
D|--5-3-2-------2-3-2-----5-7-----------------------------------|
A|3-------5-3-5-------5-3---------------------------------------|
E|--------------------------------------------------------------|

Enjoi, punk rock, yeh!!!

| /  slide up
| \  slide down
| h  hammer-on
| p  pull-off
| ~  vibrato
| +  harmonic
| x  Mute note
===============================================================================
Comments