Nofx - Liza Chords & Tabs

 

Liza Chords & Tabs

Nofx Chords & Tabs

Version: 1 Type: Bass Tab 0 ratings
1 star 2 stars 3 stars 4 stars 5 stars
comments

Liza Bass Tab

Song: Liza
Band: NoFX 
Album: Heavy petting zoo
tabbed by: Carlos Pino 

    part 1
G:---------------------------------------------------------------
D:---------------------------------------------------------------
A:-2-2-2-2--2-2-2--2-2-2-4-4-2-2-2--2-2-2--2-2-2-4-4-0-0
E:---------------------------------------------------------------

G:---------------------------------------------------------------
D:---------------------------------------------------------------
A:--0-0-0--0-0-0-4-4-0-0--0-0-0--0-0-0--4-4-2-2-2
E:---------------------------------------------------------------

G:---------------------------------------------------------------
D:---------------------------------------------------------------
A:--2-2-2--2-2-2-4-4-2-2-2--2-2-2--2-2-2-4-4-0-0-0
E:---------------------------------------------------------------
[ Tab from: http://www.guitartabs.cc/tabs/n/nofx/liza_btab.html ]
G:---------------------------------------------------------------
D:---------------------------------------------------------------
A:-0-0-0--0-0-0-4-4-0-0-0--0-0-0--0-0-0--4-4-------
E:---------------------------------------------------------------

    part 2                                      x2
G:---------------------------------------------------------------
D:---------------------------------------------------------------
A:-5-5-5-5-5-5-5-5-----------------------------------------
E:----------------------1-1-1-1-1-1-1-1--3-3-3-3-3-3-3-3--6-6-6-6-6-6-6-6

part 1

chorus                                          X2
G:---------------------------------------------------------------
D:---------------------------------------------------------------
A:-5-5-5-5-5-5-5-5-----------------------------------------
E:----------------------5-5-5-5-5-5-5-5-1-1-1-1-1-1-1-1-5-5-5-5-5-5-5-5

repeat part 1 and chorus


Comments