Nofx - Liza And Louise Chords & Tabs

 

Liza And Louise Chords & Tabs

Nofx Chords & Tabs

Version: 1 Type: Bass Tab 0 ratings
1 star 2 stars 3 stars 4 stars 5 stars
comments

Liza And Louise Bass Tab

LIZA & LOUISE



NOFX
White Trash...
tabbed by Albino (bbfan@bellatlantic.net)
http://www.geocities.com/SunsetStrip/Stage/5367

These should be the right notes, but I might have messed up on how many times 
you play each one. Listen to the song and you should have no plablem.


G:---------------------------------------------------------------
D:---------------------------------------------------------------
A:--------------------------------4-5-555555555555---7-77777777777777
E:-5555555555555-4-2-222222222222------------------7-------------

[ Tab from: http://www.guitartabs.cc/tabs/n/nofx/liza_and_louise_btab.html ]
G:------------------------------------------------------------------
D:---------------------------------------------------------2222222222222-4444444444444444
A:------------------------------------------222222222222223---------
E:-5555555555555555-5-55-5-4-222222222222223------------------------


G:---------------------------------------------------------------------
D:--------------------------------------------------------------------
A:---------------4444444455555555-------------------------5555555577777777
E:-5-5-4-55555555----------------5555555557777777777777777------------
Comments