Nofx - Live Your Life Chords & Tabs

 

Live Your Life Chords & Tabs

Nofx Chords & Tabs

Version: 2 Type: Tab 0 ratings
1 star 2 stars 3 stars 4 stars 5 stars
comments

Live Your Life Tab

   
LIVE YOUR LIFE BY NOFX
ALBUM: MAXIMUM ROCK & ROLL


By:Stash(stash@nt.net)

PART 1
e|--------------------------------------------------------------------|
B|--------------------------------------------------------------------|
G|----------7-7-7-7--9-9-9-9-7-9-9-9-9-7-9-9-9-9-7--------------------|
D|-2-2-2-2--7-7-7-7--9-9-9-9-7-9-9-9-9-7-9-9-9-9-7--5-5-5-5--4-4-4-4--|
A|-2-2-2-2--5-5-5-5--7-7-7-7-5-7-7-7-7-5-7-7-7-7-5--5-5-5-5--4-4-4-4--|
E|-0-0-0-0------------------------------------------3-3-3-3--2-2-2-2--|

PART 2
e|--------------------------------------------------------------------|
B|--------------------------------------------------------------------|
G|-9-9-9-9-7-9-9-9-9-7-9-9-9-9-7--------------------------------------|
D|-9-9-9-9-7-9-9-9-9-7-9-9-9-9-7--5-5-5-5--4-4-4-4--X2----------------|
A|-7-7-7-7-5-7-7-7-7-5-7-7-7-7-5--5-5-5-5--4-4-4-4--------------------|
E|--------------------------------3-3-3-3--2-2-2-2--------------------|

e|--------------------------------------------------------------------|
B|--------------------------------------------------------------------|
G|--------------9-X-9-X-9---------------------------------------------|
D|-2-2-2-2-2-2--9-X-9-X-9--7-7-7-7--5-5-5-5--X3-2---------------------|
A|-2-2-2-2-2-2--7-X-7-X-7--7-7-7-7--5-5-5-5-----2---------------------|
E|-0-0-0-0-0-0-------------5-5-5-5--3-3-3-3-----0---------------------|

PART 3
e|--------------------------------------------------------------------|
B|--------------------------------------------------------------------|
G|------------9-------7-------7-------5-------9-------7---------------|
D|-5-4--2-2-2-9-2-2-2-7-2-2-2-5-2-2-2-5-2-2-2-9-2-2-2-7--5-4--X2------|
A|-5-4--2-2-2-7-2-2-2-5-2-2-2---2-2-2-3-2-2-2-7-2-2-2-5--5-4----------|
E|-3-2--0-0-0---0-0-0---0-0-0---0-0-0---0-0-0---0-0-0----3-2----------|
        PM...   PM...   PM...   PM...   PM...   PM...

PART 4
e|--------------------------------------------------------------------|
B|--------------------------------------------------------------------|
G|-7/9--7/9---------------------------5-5-5-5-5-5-5-5-----------------|
D|-7/9--7/9-2-2-2-2-2-2--x4-5/7--5/7--5-5-5-5-5-5-5-5-x2--------------|
A|-5/7--5/7-2-2-2-2-2-2-----5/7--5/7--3-3-3-3-3-3-3-3-----------------|
E|----------0-0-0-0-0-0-----3/5--3/5----------------------------------|
            PM.........
[ Tab from: http://www.guitartabs.cc/tabs/n/nofx/live_your_life_tab_ver_2.html ]
e|--------------------------------------------------------------------|
B|--------------------------------------------------------------------|
G|-7/9--7/9-----------------------------------------------------------|
D|-7/9--7/9-2-2-2-2-2-2--X2-------------------------------------------|
A|-5/7--5/7-2-2-2-2-2-2-----------------------------------------------|
E|----------0-0-0-0-0-0-----------------------------------------------|
            PM.........

PART 5
e|--------------------------------------------------------------------|
B|--------------------------------------------------------------------|
G|-9-9-9-9-9-9-9-9-7-9-9-9-9-9-9-9-9-7-9-9-9-9-9-9-9-9----------------|
D|-9-9-9-9-9-9-9-9-7-9-9-9-9-9-9-9-9-7-9-9-9-9-9-9-9-9-5-5-5-5-4-4-4-4|
A|-7-7-7-7-7-7-7-7-5-7-7-7-7-7-7-7-7-5-7-7-7-7-7-7-7-7-5-5-5-5-4-4-4-4|
E|-----------------------------------------------------3-3-3-3-2-2-2-2|
                                                       PM.............

e|--------------------------------------------------------------------|
B|--------------------------------------------------------------------|
G|--------------------------------------------------------------------|
D|-5-5-5-5--7-7-7-7--2-2-2-2-2-2-2-2--5-5-5-5--7-7-7-7--5-5-5-5--4-4-4|
A|-5-5-5-5--7-7-7-7--2-2-2-2-2-2-2-2--5-5-5-5--7-7-7-7--5-5-5-5--4-4-4|
E|-3-3-3-3--5-5-5-5--0-0-0-0-0-0-0-0--3-3-3-3--5-5-5-5--3-3-3-3--2-2-2|
   PM..............                   PM..............................

PART 6
e|--------------------------------------------------------------------|
B|--------------------------------------------------------------------|
G|-----9------------------------------------------WHOLE PART X2-------|
D|-2-2-9--X4-5-5-5-5--7-7-7-7--5-5-5-5--4-4-4-4-----------------------|
A|-2-2-7-----5-5-5-5--7-7-7-7--5-5-5-5--4-4-4-4-----------------------|
E|-0-0-------3-3-3-3--5-5-5-5--3-3-3-3--2-2-2-2-----------------------|
   PM.       PM................................

PART 7
e|--------------------------------------------------------------------|
B|--------------------------------------------------------------------|
G|-----9----------------------9-9-9--7-7--9-9---------9---------------|
D|-2-2-9-X4--5-5-5-5--4-4-4-4-9-9-9--7-7--9-9--2-2-2--9---------------|
A|-2-2-7-----5-5-5-5--4-4-4-4-7-7-7--5-5--7-7--2-2-2--7---------------|
E|-0-0-------3-3-3-3--2-2-2-2------------------0-0-0------------------|
   PM.                                         PM...

PART 8                                             END
e|------------------------------------------------|-------------------|
B|------------------------------------------------|-------------------|
G|--------------------------7-7--9-9--------9-----|-9-9-9-9-9-9-9-9-9-|
D|-5-5-5-5--4-4-4-4--2-2-2--7-7--9-9--2-2-2-9--X2-|-9-9-9-9-9-9-9-9-9-|
A|-5-5-5-5--4-4-4-4--2-2-2--5-5--7-7--2-2-2-7-----|-7-7-7-7-7-7-7-7-7-|
E|-3-3-3-3--2-2-2-2--0-0-0------------0-0-0-------|-------------------|
                                      PM...

NO LYRICS AVAILABLE BECAUSE THEY'RE INCOMPREHENSIBLE

Stash@nt.net for comments/questions
Comments