Nofx - Lisa And Louise Chords & Tabs

 

Lisa And Louise Chords & Tabs

Nofx Chords & Tabs

Version: 1 Type: Tab 0 ratings
1 star 2 stars 3 stars 4 stars 5 stars
comments

Lisa And Louise Tab

   
#----------------------------------PLEASE NOTE---------------------------------#
#This file is the author's own work and represents their interpretation of the #
#song. You may only use this file for private study, scholarship, or research. #
#------------------------------------------------------------------------------##
#

From: Chalks1@aol.com
Date: Sat, 6 Apr 1996 17:17:41 -0500


Liza and Louise
Nofx
White Trash Two Heebs and a Bean
EPITAPH

I don't know the solos but i have the verse and the bridge

VERSE
             
          
                   A5                   C#                    F#
              C#   D5          
g-----------------------------------------6-----------------------------------
-------6----7
d--7-7-7-7-7-7-7-7-7-7-7-7-7-7--6--4---4-4-4-4-4-4-4-4-4-4-4-4---6----7
a--7-7-7-7-7-7-7-7-7-7-7-7-7-7--4--4---4-4-4-4-4-4-4-4-4-4-4-4---4----5
e--5-5-5-5-5-5-5-5-5-5-5-5-5-5------2---2-2-2-2-2-2-2-2-2-2-2-2----------
   
                 D5ii               B5 E5ii
g--7-7-7-7-7-7-7-7-7-7-7-7--------9
d--7-7-7-7-7-7-7-7-7-7-7-7---9---9
a--5-5-5-5-5-5-5-5-5-5-5-5---9---7
e-------------------------------------7-----

BRIDGE
                  A5                     C#             F#
                     B5ii 
g---------------------------------------------------------------------------4-
4-4-4-4-4-4-4-
d--7-7-7-7-7-7-7-7-7-7-7-7--7-7--6--4---4-4-4-4-4-4-4-4---4-4-4-4-4-4-4-4-
a--7-7-7-7-7-7-7-7-7-7-7-7--7-7--6--4---4-4-4-4-4-4-4-4---2-2-2-2-2-2-2-2-
e--5-5-5-5-5-5-5-5-5-5-5-5--5-5--4--2---2-2-2-2-2-2-2-2-----------------------
--

            E5ii                 C#              A5  C#             F#
                  B5ii
g--9-9-9-9-9-9-9-9---6-6-6-6-6-6-6-6-----------------------------------------4
-4-4-4-4-4-4-4-
d--9-9-9-9-9-9-9-9---6-6-6-6-6-6-6-6----7-7--6--4--4-4-4-4-4-4-4-4--4-4-4-4-4-
4-4-4-
a--7-7-7-7-7-7-7-7---4-4-4-4-4-4-4-4----7-7--6--4--4-4-4-4-4-4-4-4--2-2-2-2-2-
2-2-2-
e---------------------------------------------------5-5--4--2--2-2-2-2-2-2-2-2
------------------------



[ Tab from: http://www.guitartabs.cc/tabs/n/nofx/lisa_and_louise_tab.html ]
                                                                 
    
             E5ii                C#                                     A5
             C#           D5ii
g--9-9-9-9-9-9-9-9--6-6-6-6-6-6-6-6----------------------------------------6--
6-6-6-6-6-6---7-
d--9-9-9-9-9-9-9-9--6-6-6-6-6-6-6-6---------------------7-7-7-7-7-7---6--6-6-6
-6-6-6---7-
a--7-7-7-7-7-7-7-7--4-4-4-4-4-4-4-4---------------------7-7-7-7-7-7---4--4-4-4
-4-4-4---5-
e------------------------------------------------5-5-5-5--4--5--5-5-5-5-5-5---
-------------------------
         
          D5ii                A5                     B5
                             D5ii
g--7-7-7-7-7-7-----------------------------------------------------------7-7-7
-7-7-7-7-7-7-7-7-7-
d--7-7-7-7-7-7---7--7-7-7-7-7-7---9-9-9-9-9-9-9-9-9-9-9-9--7-7-7-7-7-7-7-7-7-7
-7-7-
a--5-5-5-5-5-5---7--7-7-7-7-7-7---9-9-9-9-9-9-9-9-9-9-9-9--5-5-5-5-5-5-5-5-5-5
-5-5-
e--------------------5--5-5-5-5-5-5---7-7-7-7-7-7-7-7-7-7-7-7-----------------
-------------------

                E5ii
g--9-9-9-9-9-9-9-9-9-9-9-9-
d--9-9-9-9-9-9-9-9-9-9-9-9-  then go back to verse
a--7-7-7-7-7-7-7-7-7-7-7-7-
e-----------------------------------

Lyrics

Lizas had enough of men,
She says she won't get burnt again,
She says they don't know how to fuck,
Her last boyfriend the schmuck,
Shared with her a nice disease,
Kept her passive on her knees,
Till one day she took his car,
And drove into the city.

Liza had put down a few when she met a girl named Lou,
Who convinced her to go home with her,
She said MY NAME'S LOUISE,
And would you take your clothes off please,
I want to take you to the moon and back,
So get on your back.
With a flip of the tongue she made her laugh, 
She made her dance,
She made her scream,
She was happy for the first time,
And you know she wanted MORE!

Now with her legs spread wider,
She needed to have Louise inside her,
She said I'll never forget the first time you kissed me,
Now I want you to fist me,
Louise didn't need a second invitation,
She knew just what to do,
Yeah she knew just what to do.

Liza had cum a few times before,
But she ain't never even seen the door, 
Into the world of pleasures of the flesh,
She felt just like 16,
And her life before now was a dream,
Or even a nightmere that's over and done,
Just like warm heakin' rays shinin' from the sun,
They made her laugh,
They  made her dance,
They made her scream,
And you know she wanted more.


















------------------------------------------------------------------------------
---------------

  NN      HH     OOOOO       FFFFFFFF     XXX   XXX
   N N     N     O          O        F          F       X     X
   N  N    N     O          O        F                    X   X
   N   N   N     O          O        FFFF               X X
   N    N  N     O          O        F                     X X
   N     N N     O          O        F                    X   X
   N      NN     O          O        F                   X     X
  NN      NN     OOOOO        FF                XXX   XXX 
CAUSE HEY    WE'RE THE BREWS...

Comments