Nofx - Linoleum Chords & Tabs

 

Linoleum Chords & Tabs

Nofx Chords & Tabs

Version: 2 Type: Bass Tab 0 ratings
1 star 2 stars 3 stars 4 stars 5 stars
comments

Linoleum Bass Tab

   
Song:  Linoleum
Band:  NOFX
Album:  Punk in Drublic
tabbed by:  Rroi aka  VooDoo7

You should listen to the CD a few times to get where the changes come 
in.  I think it goes something like 1 1 1 2 1 2 2 2 1 where on 1 you go 
from the 4th fret  to the 2nd on the A string  and from the 5th to the 
7th on the E string.  On 2 you don't change on the 4th  and 5th.  You'll  
get it when you look at the tab.

intro
G:---------------------------------------------------------------
D:---------------------------------------------------------------
A:---------------------------------------------------------------
E:0-0-0-0-0-0-0-0-0-0-0-0-0-0-0-0-0-0-0-0-0-0-0-0----

cont:
G:---------------------------------------------------------------
D:---------------------------------------------------------------
A:---------------------------------------------------------------
E:-0-0-0-0-0-0-0-0-------------------------------------------


G:---------------------------------------------------------------
D:---------------------------------------------------------------
A:7-7-7-7-7-7-7-7-7-7-7-7-7-7-7-7-6-6-6-6-6-6-6-6-6-6-6-6-6-6-6-6
E:---------------------------------------------------------------

[ Tab from: http://www.guitartabs.cc/tabs/n/nofx/linoleum_btab_ver_2.html ]
G:---------------------------------------------------------------
D:---------------------------------------------------------------
A:4-4-4-4-4-4-4-4-2-2-2-2-2-2-2-2------------------------
E:----------------------------------------5-5-5-5-5-5-5-5-7-7-7-7-7-7-7-7-

Verse  This one's a 1
G:---------------------------------------------------------------
D:---------------------------------------------------------------
A:-7-7-7-7-7-7-7-7-7-7-7-7-7-7-7-7-6-6-6-6-6-6-6-6-6-6-6-6-6-6-6-6-
E:---------------------------------------------------------------


G:---------------------------------------------------------------
D:---------------------------------------------------------------
A:4-4-4-4-4-4-4-4-2-2-2-2-2-2-2-2------------------------
E:----------------------------------------5-5-5-5-5-5-5-5-7-7-7-7-7-7-7-7-

This one's a 2
G:---------------------------------------------------------------
D:---------------------------------------------------------------
A:7-7-7-7-7-7-7-7-7-7-7-7-7-7-7-7-6-6-6-6-6-6-6-6-6-6-6-6-6-6-6-6-
E:---------------------------------------------------------------


G:---------------------------------------------------------------
D:---------------------------------------------------------------
A:4-4-4-4-4-4-4-4-4-4-4-4-4-4-4-4------------------------
E:----------------------------------------5-5-5-5-5-5-5-5-5-5-5-5-5-5-5-5-5



Rroi

Comments