Nofx - Linoleum Chords & Tabs

 

Linoleum Chords & Tabs

Nofx Chords & Tabs

Version: 1 Type: Bass Tab 0 ratings
1 star 2 stars 3 stars 4 stars 5 stars
comments

Linoleum Bass Tab

#----------------------------------PLEASE NOTE---------------------------------#
#This file is the author's own work and represents their interpretation of the #
#song. You may only use this file for private study, scholarship, or research. #
#------------------------------------------------------------------------------#

Song: Linoleum
Artists: Nofx
Album: Punk in Drublic

INTRO
G-----------------------------------------------------
D-----------------------------------------------------
A-----------------------------------------------------
E--0-0-0-0-0-0-0-0-0-0-0-0-0-0-0-0-0-0-0-0-0-0-0-0-0--


INTRO CONTINUED
G---------------------------------------------------------------------
D---------------------------------------------------------------------
A--7-7-7-7-7-7-7-7-7-7-7-7-7-7--6-6-6-6-6-6-6-6-6-6-6-6--4-4-4-4-4-4--
E---------------------------------------------------------------------

G----------------------------------------- End with G-------
D-----------------------------------------	    D-------
A--2-2-2-2-2-2--0-0-0-0-0-0--2-2-2-2-2-2--	    A-------
E-----------------------------------------	    E---0---


VERSE 1
G-----------------------------------------------------------------
D-----------------------------------------------------------------
A----------------------------------------------------4-4-4-4-4-4--
E--0-0-0-0-0-0-0-0-0-0-0-0--4-4-4-4-4-4-4-4-4-4-4-4---------------

G-----------------------------------------
D-----------------------------------------
A--2-2-2-2-2-2--0-0-0-0-0-0--2-2-2-2-2-2--
E-----------------------------------------

[ Tab from: http://www.guitartabs.cc/tabs/n/nofx/linoleum_btab.html ]
VERSE 2
G-----------------------------------------------------------------------------
D-----------------------------------------------------------------------------
A----------------------------------------------------4-4-4-4-4-4-4-4-4-4-4-4--
E--0-0-0-0-0-0-0-0-0-0-0-0--4-4-4-4-4-4-4-4-4-4-4-4---------------------------

G---------------------------
D---------------------------
A---------------------------
E--5-5-5-5-5-5-5-5-5-5-5-5--


VERSE 3A
G-----------------------------------------------------------------------------
D-----------------------------------------------------------------------------
A---------------------------2-2-2-2-2-2-2-2-2-2-2-2--4-4-4-4-4-4-4-4-4-4-4-4--
E--0-0-0-0-0-0-0-0-0-0-0-0----------------------------------------------------

G---------------------------
D---------------------------
A---------------------------
E--5-5-5-5-5-5-5-5-5-5-5-5--


BRIDGE
After guitar verse  G-----------------------*------------------------------------
		    D-----------------------*------------------------------------
 		    A-----------------------*-------------------2-2-2-2-2-2-2-2--
		    E--5-5-5-5-5-5-5-5/12--*--0-0-0-0-0-0-0-0--------------------

		    G--------------------------------------------
		    D--------------------------------------------
		    A--4-4-4-4-4-4-4-4---------------------------
		    E-------------------5-5-5-5-5-5-5-5-5-5-5-5--


VERSE 3B
G------------------------------------------------------------------------------
D------------------------------------------------------------------------------
A----------------------------------------------------4-4-4-4-4-4--2-2-2-2-2-2--
E--0-0-0-0-0-0-0-0-0-0-0-0--4-4-4-4-4-4-4-4-4-4-4-4----------------------------

G--------------------------------
D--------------------------------
A--0-0-0-0-0-0--2-2-2-2-2-2--/7--
E--------------------------------


END
G----------
D----------
A----------
E--0--0-0--


INTRO
INTRO CONTINUED
VERSE 1   x2
VERSE 2   x1
VERSE 1   x1
VERSE 3A   x1
BRIDGE   x1
VERSE 3A   x2
VERSE 3B   x1
END


For questions: mc_call@email.it 
Comments