Nofx - Leaving Jesusland Chords & Tabs

 

Leaving Jesusland Chords & Tabs

Nofx Chords & Tabs

Version: 1 Type: Bass Tab

Leaving Jesusland Bass Tab

Song:  Leaving Jesusland
Band:  NOFX
Album: Wolves in Wolves' Clothing
Submitted by: Bobby-Jimmy
Tuning: Standard

This is one of my favorite songs of the new album. This is also my first tab. I'm 98% sure this is right

*= play 8 times
#= play 4 times
~= let ring


Intro: X2 (after guitar)0:12
G|-------------------------------------------------------------------||
D|-------------------------------------------------------------------|| 
A|---0*------------------------------0#------------------------------|| 
E|---------1*-----3#-----0#----4#------------------------------------||


Pre-Chorus X4 (Mabye thats why they're so scared of us...)0:24
G|-------------------------------------------------------------------||
D|-------------------------------------------------------------------||
A|-----8*------------------------------------------------------------||
E|-------------------------------------------------------------------||


Chrous X1 (Queers, transgends, and lesbians...) 0:30
G|-------------------------------------------------------------------||
D|-------------------------------------------------------------------|| 
A|--00-033-3----------------3*--7*--0*---888888--3~------------------|| 
E|------------1*--33-311-1-------------------------------------------||


Verse Part 1 (No longer svelte...) 0:42
G|-------------------------------------------------------------------||
D|-------------------------------------------------------------------|| 
A|---0*------------------------------0#------------------------------|| 
E|---------1*-----3#-----0#----4#------------------------------------||
[ Tab from: http://www.guitartabs.cc/tabs/n/nofx/leaving_jesusland_btab.html ]
Verse Part 2
G|-------------------------------------------------------------------||
D|-------------------------------------------------------------------|| 
A|---0*------------------------------0-------------------------------|| 
E|---------1*-----3#-----0#----444-----------------------------------||

Then paly Verse Part 1 2X

Then play Pre-Chorus (They don't want visitors in Jesusland)1:07


Chorus 2 X2 (We want people with college degrees...)1:13
G|-------------------------------------------------------------------||
D|-------------------------------------------------------------------||
A|--00-033-3----------------3*--7*--0*---888888-3~-------------------|| 
E|------------1*--33-311-1-------------------------------------------||

 (Bakersfield and Fresno too...) 1:38
G|-------------------------------------------------------------------||
D|-------------------------------------------------------------------|| 
A|---888888-3~---888888--0~------------------------------------------|| 
E|-------------------------------------------------------------------||

Bridge 1:46
G|-------------------------------------------------------------------||
D|-------------------------------------------------------------------||
A|----------0**------------------------------------------------------||
E|--1*--3*-------1*--3*----------------------------------------------||

Verse 3 X2 (The fear stricken, born again Christian...) 2:04
G|-------------------------------------------------------------------||
D|-------------------------------------------------------------------|| 
A|---0*------------------------------0#------------------------------|| 
E|---------1*-----3#-----0#----4#------------------------------------||


Play Pre-Chorus (They don't want visitors in Jesusland...) 2:16

Play 1st Chorus X2 (Punk Rockers and emo kids...)2:22

Outro (No longer svelte...)2:46
G|-------------------------------------------------------------------||
D|-------------------------------------------------------------------|| 
A|---0*------------------------------0-------------------------------|| 
E|---------1*-----3#-----0#----444-----------------------------------||