Nofx - Lazy Train Chords & Tabs

 

Lazy Train Chords & Tabs

Nofx Chords & Tabs

Version: 1 Type: Bass Tab 0 ratings
1 star 2 stars 3 stars 4 stars 5 stars
comments

Lazy Train Bass Tab

Song: Lazy Train (aka the only interesting NOFX song to play on bass)
Band: NOFX
Album: Happy Meals Volume 2 comp
tabbed by: Adam (killtheducks@hotmail.com)

intro:
(the bass isn't very clear here. He plays each note a few times, just not 
sure how many)
g--------------------------------------------------------------
d--------------------------------------------------------------
a--------------------------------------------------------------
e-R--0/12-0/10-9-8-8-8-8-8-------------------------------------

chorus:                            *              repeat... 1st ending: 2nd 
ending:
g----------------------------------------------------------|-----------|-----------
d----------------------2-4--------------------0-2-4--------|-------6-9-|-----------
a------------------4-6--------------0-2-0-2-3--------------|-7-7-7-----|-----------
e--0-0-4-5-7-5-4-2---------7-5-4-2------------------0-0-4-7|-----------|-0-0-0-4-7-
[ Tab from: http://www.guitartabs.cc/tabs/n/nofx/lazy_train_btab.html ]
verse:                                                                       
repeat...
g----------------------------------------------------------------------------
d----------------------------------------------------------------2---------2-
a--------------------------------------0-0-4-7-0-0-0-4-7-0-0-0-3---0-0-0-3---
e-0-0-4-7-0-0-0-4-7--0-0-4-7-0-0-0-4-7---------------------------------------

bridge: (x16 means strum the note 16 times, not a harmonic/mute at the 16th 
fret :)
g--------------------------------------------------------------
d--------------------------------------------------------------
a--------------------------------------------------------------
e--7-(x16)-9-(x16)-2-(x16)--7-7-7-7-5-5-5-5-4-4-4-4-2-2-2-2----

end:
g--------------------------------------------------------------
d--------------------------------------------------------------
a-0-3----------------------------------------------------------
e-----0--------------------------------------------------------

Right before the bridge the chorus is cut off a bit before the end, but it's 
easy to hear.
At the end of the song, the chorus cuts off at the * and is replaced with 
the "end" riff..



Comments