Nofx - Last Caress Chords & Tabs

 

Last Caress Chords & Tabs

Nofx Chords & Tabs

Version: 1 Type: Bass Tab

Last Caress Bass Tab

Intro
G|--------------------|
D|----3-5----3-5-3--5-|
A|-3------3-----------|
E|--------------------|

Verse
G|-----------------------------|
D|-------------------------3-5-|
A|-3-3-3-3-3-3-3-3-3-3-3-3-----| x4
E|-----------------------------|

Chorus
G|--------------------------------------|
D|-------------------33333333-55555555--|
A|-33333333-55555555--------------------| x2
E|--------------------------------------|
[ Tab from: http://www.guitartabs.cc/tabs/n/nofx/last_caress_btab.html ]
G|-------------------------------------------------------|
D|----------------------------3335-555----------3335-555-|
A|-33333333-55555555-33333333----------33333333----------|
E|-------------------------------------------------------|

Verse x2
Chorus
Verse x4
Chorus

Outro
G|---------------------------------------------|
D|----------3335-555----------3335-555-----3-5-|
A|-33333333----------33333333-----------3------|
E|---------------------------------------------|