Nofx - Kill Rock Stars Chords & Tabs

 

Kill Rock Stars Chords & Tabs

Nofx Chords & Tabs

Version: 3 Type: Tab 0 ratings
1 star 2 stars 3 stars 4 stars 5 stars
comments

Kill Rock Stars Tab

   
Intro

Guitar A
|---------------------|
|---------------------|
|---------------------|
|-14--12--10--12------|
|-12--10---8--10--12--|
|-----------------10--|


Riff 1

Guitar B
|------------------------------------------------------|
|------------------------------------------------------|
|------------------------55555-------77777-55555-55555-|
|-777777-3-3-3-3--333333-55555-33333-77777-55555-55555-|
|-777777-3-3-3-3--333333-33333-33333-55555-33333-33333-|
|-555555-1-1-1-1--555555-------11111-------------------|

Guitar A
|------------------------------------------------------|
|------------------------------------------------------|
|--------10101010--------55555-------77777-55555-55555-|
|-777777-10101010-333333-55555-33333-77777-55555-55555-|
|-777777--8-8-8-8-333333-33333-33333-55555-33333-33333-|
|-555555----------555555-------11111-------------------|


Guitar B
|---------------------------------------------------|
|---------------------------------------------------|
|---------------------55555-------77777-55555-55555-|
|-777777-3333--333333-55555-33333-77777-55555-55555-|
|-777777-3333--333333-33333-33333-55555-33333-33333-|
|-555555-1111--555555-------11111-------------------|
           
Guitar A
|---------------------------------------------------|
|---------------------------------------------------|
|-555555-5555--777777-99-77-55555-1010-10/99--10/99-|
|-xxxxxx-xxxx--xxxxxx-xx-xx-xxxxx--x-x--x-xx---x-xx-|
|-333333-3333--555555-77-55-33333--8-8--8/77---8/77-|
|---------------------------------------------------|

[ Tab from: http://www.guitartabs.cc/tabs/n/nofx/kill_rock_stars_tab_ver_3.html ]
Guitar B
|-------------|
|-------------|
|-77777-------|
|-77777-77777-|
|-55555-77777-|
|-------55555-|

Guitar A
|------------------|
|------------------|
|-------1414141414-|
|-77777--x-x-x-x-x-|
|-55555-1212121212-|
|------------------|


Riff 2

Guitar B
|-----------------------------------|
|-----------------------------------|
|-----------------------------------|
|-101010-999-777-555--7777-10101010-|
|-101010-999-777-555--5555--8-8-8-8-|
|--8-8-8-777-555-333----------------|

Guitar A
|-----------------------------------|
|-----------------------------------|
|-555-777-999-101010----------------|
|-xxx-xxx-xxx--x-x-x--7777-10101010-|
|-333-555-777--8-8-8--5555--8-8-8-8-|
|-----------------------------------|


Riff 1 (again)


Riff 3

Guitar B
|-----------------------------------|
|-----------------------------------|
|-----------------------------------|
|-101010-999-777-555--7777-10101010-|
|-101010-999-777-555--5555--8-8-8-8-|
|--8-8-8-777-555-333----------------|

Guitar A
|-----------------------------------|
|-----------------------------------|
|-555-777-999-101010-------14141414-|
|-xxx-xxx-xxx--x-x-x--7777--x-x-x-x-|
|-333-555-777--8-8-8--5555-12121212-|
|-----------------------------------|


Guitar B
|------------------------------|
|------------------------------|
|--------------------------10~-|
|-101010-999-777-555--7777-10~-|
|-101010-999-777-555--5555--8~-|
|--8-8-8-777-555-333-----------|

Guitar A
|------------------------------|
|------------------------------|
|-555-777-999-101010-------10~-|
|-xxx-xxx-xxx--x-x-x--7777-10~-|
|-333-555-777--8-8-8--5555--8~-|
|------------------------------|

By Marco Punk Rock Rulez!!
Comments