Nofx - Kill All The White Men Chords & Tabs

 

Kill All The White Men Chords & Tabs

Nofx Chords & Tabs

Version: 1 Type: Bass Tab 0 ratings
1 star 2 stars 3 stars 4 stars 5 stars
comments

Kill All The White Men Bass Tab

title:kill all the white man
artist: NOFX
Tabber: aesthetics84@hotmail.com


intro ( at least on the live version I´ve got on my computer)
G-----------------------------------------
D-3-3-3---3-------------------------------
A-------3---------------------------------
E-----------------------------------------

verse and chorus
G-------------------------------------5-5-5-5-5-3-2---
D-3-3-3---3--3-3-3---0-3--5-5-5-5-3-----------------3-
A-------3----------3----------------3-----------------
E-----------------------------------------------------
[ Tab from: http://www.guitartabs.cc/tabs/n/nofx/kill_all_the_white_men_btab.html ]
part at the end
G---------------------------------------------------------------------
D-3333333333333333-----------------------------------33333333333333333
A------------------2222222222222222-5555555555555555------------------
E---------------------------------------------------------------------

G---------------------------------------------------------------------
D-----------------------------------3333333333333333------------------
A-3333333333333333-5555555555555555-----------------333333333333333333
E---------------------------------------------------------------------

I hope you´ll enjoy playing it, I know i do

Comments