Nofx - Its My Job To Keep Punk Rock Elite Chords & Tabs

 

Its My Job To Keep Punk Rock Elite Chords & Tabs

Nofx Chords & Tabs

Version: 3 Type: Bass Tab 0 ratings
1 star 2 stars 3 stars 4 stars 5 stars
comments

Its My Job To Keep Punk Rock Elite Bass Tab

   
Song - It's My Job to Keep Punk Rock Elite
Artist - NOFX
Album - The Greatest Songs Ever Written: By Us
Tabbed by - Daniel Cummins - dan_the_man_no1@hotmail.com

INTRO (slide starts at 0.05)
G|----------------------------------1h3-3-1h3-3-----------1h3-3-1h3-3-------|
D|-------------3-3-1------3-3-1-----------------3-3-1-----------------3-3-1-|
A|-3/15-15-----------3-3--------3-3-------------------3-3-------------------|
E|--------------------------------------------------------------------------|

VERSE - X2
G|------------------------------------------------------------------|
D|---------3333333366666666----------------66666666-----------------|
A|-33333333----------------6666666633333333--------2222222266666666-|
E|------------------------------------------------------------------|
[ Tab from: http://www.guitartabs.cc/tabs/n/nofx/its_my_job_to_keep_punk_rock_elite_btab_ver_3.html ]
BIT AFTER VERSE
G|--------------------------------1h3-3-1h3-3-------|
D|-----------------------3333-----------------3-3-1-|
A|-3-3------------------------3-3-------------------|
E|--------------------------------------------------|

VERSE - X2
G|------------------------------------------------------------------|
D|---------3333333366666666----------------66666666-----------------|
A|-33333333----------------6666666633333333--------2222222266666666-|
E|------------------------------------------------------------------|

NEXT BIT
G|------------------------------------------------------------------|
D|------------------------------------------------------------------|
A|-3333333333333333333333333333333333333333333333333333333333333333-|
E|------------------------------------------------------------------|

OUTRO
G|-----------------------------------------|
D|-----------------------------------------|
A|-----------------1111111111111111-3~~~~~-|
E|-4444444444444444------------------------|

and thats it (i think).
please rate and comment.
Dan
Comments