Nofx - Irrationality Of Rationality Chords & Tabs

 

Irrationality Of Rationality Chords & Tabs

Nofx Chords & Tabs

Version: 1 Type: Bass Tab

Irrationality Of Rationality Bass Tab

Band: Nofx
Album: The War on Errorism
email: arbiter1023@sbcglobal.net
song: The Irrationality of Rationality

Intro: (x5)
G|--x-------------|--x---------------------------------------------------|
D|--x-------------|--x---------------------------------------------------|
A|--x----88-------|--x-----88--------------------------------------------|
D|--x-55----55-7--|--x--55----55-----------------------------------------|

Verse 1:
G|-----------------------------|--------------|--------------------------|
D|--2-----2-----1--------------|--------------|-----------1--------1-----|
A|----3-0---3-0---3-------3-0--|-----88-------|---88------3--3---3------3|
D|------------------3-1-3------|--55---55-7---|--55----55----3-1-3-3-1-3-|

Main Riff: (x8 for each)
G|-----------------------------------------------------------------------|
D|--------3-----------3--------5--3--------5-----------------------------|
A|--3--0-----3--3--0-----3--3--------3--3--------------------------------|
D|-----------------------------------------------------------------------|
[ Tab from: http://www.guitartabs.cc/tabs/n/nofx/irrationality_of_rationality_btab.html ]
Bridge:
G|-----------------------------------------------------------------------|
D|-----------------------------------------------------------------------|
A|--0-----88----------88----------88-----12-----88-----------------------|
D|-----55----55-7--55----55-7--55----55------55----55--------------------|
   x10         x10         x10          x10

Bridge 2:
G|-----------------------------------------------------------------------|
D|-----------------------------------------------------------------------|
A|--0-----88---------------3~--------------------------------------------|
D|-----55----55-7--77--5-5-----------------------------------------------|
   x10         x10

Verse 2:
G|-----------------------------------------------------------------------|
D|---------------------------2-----1-------------------------------------|
A|--0*----88----------88--------3-----3----------------------------------|
D|-----55----55-7*-55----55----------------------------------------------|
   x10         x10

Outro:
G|-----------------------------------------------------------------------|
D|--3~-------------------------------------------------------------------|
A|-----------------88----------------------------------------------------|
D|--------------55----55-77----------------------------------------------|