Nofx - Instrumental Chords & Tabs

 

Instrumental Chords & Tabs

Nofx Chords & Tabs

Version: 1 Type: Bass Tab

Instrumental Bass Tab

# intro # X3   !last time second part 2X!                   >
G----------------------------------------------------------->
D--------------------------------------------------2--0----->
A------------2-3-5--5-3--3---0-3--3-2--2----------------2-0->
E---0---0--0---------------3-------------3-2-3-2-3---------->
>intro
>------------------------------------------------------------|
>--------------------------------------------5-4--2--2-2-2---|
>------------2-3-5--5-3--3---0-3--3-2--2-2-2-----------------|
>---0---0--0---------------3---------------------------------|
:
# line # X4                      !last time last part 5X!
G--------------------------------|------------|
D---------------5-4---------------5-----------|
A---------7-7-7-----7-5-3-0-2-2-2---5-7-7-7---|
E---0-0-0-------------------------------------|
:
# line2 #   %=pause
G---------------------------------------------|
D-------------------------------------5-------|
A---%%%%%%%%%%%%%-5-7-7-%%%%%%%%%%%%%---7-7---|
E---------------------------------------------|
:
# line2-part2 # 2X                                               >
G---------------------------------------------------------------->
D------------------------------------9-8-7-5--------------------->
A-----------7------5-7-7---------7-------------------7-----5-7-7->
E---0-0-0-0--------------0-0-0-0-------------0-0-0-0------------->
>line2-part2
>--------------------------|
>------------------5-------|
>-----------7--------7-7---|
>---0-0-0-0----------------|
:                                              !second time play last part 4X!
# line3 # X2  *=play 8X             # line3-part2 # X2   *=play 8X
G-------------------------------|   G-----------------|----2X-----|-|
D----*-------*------5-5------*--|   D----*-------*----|-5---------|-|
A---2-------3-----------5-5-7---|   A---2-------3-----|---5-7-777-|-|
E-------------------------------|   E-----------------|-----------|-|
:
# outro #   #=play 12X   *=play 6X
G----------------------12*------9*----------------------------------TILT---|
D----#-------#-------*-------*-------#-------#------5-5--------------TILT--|
A---2-------3------10-------7-------2-------3-----------5-5-7--7--7---TILT-|
E-----------------------------------------------------------------0----TILT|
:
[ Tab from: http://www.guitartabs.cc/tabs/n/nofx/instrumental_btab.html ]