Nofx - Idiot Son Of An Asshole Chords & Tabs

 

Idiot Son Of An Asshole Chords & Tabs

Nofx Chords & Tabs

Version: 2 Type: Bass Tab 0 ratings
1 star 2 stars 3 stars 4 stars 5 stars
comments

Idiot Son Of An Asshole Bass Tab

   
This is the way Fat Mike plays it on the WoE CD-Rom type thing.  For Lazy/Tired/Beginners :D!

Idiot Son Of An Asshole by NOFX


INTRO x1
G-------------------------------------------------------------------------|
D-------------------------------------------------------------------------|
A-10-10-10-10-10-10-10-10-10-10-10-10-10-10-10-10-10-10-10-10-10-10-10-10-|
E-------------------------------------------------------------------------|

VERSE 
G-----------------------------------------|
D-----------------------------------------| x2
A-10-10-10-10-9-9-9-9-7-7-7-7-------------|
E-----------------------------8-8-10-10---|
[ Tab from: http://www.guitartabs.cc/tabs/n/nofx/idiot_son_of_an_asshole_btab_ver_2.html ]
G-----------------------------------------------|
D-----------------------------------------------| x1
A-10-10-10-10-----------------------------------|
E-------------10-10-10-10-11-11-11-11-8-8-8-8---|

G---------------------------------------|
D---------------------------------------| x1
A-10-10-10-10---------------------------|
E-------------10-10-10-10-11-11-11-11---|

PRE-CHORUS
G--------------|
D--------------|
A--------------|
E-8~--8~--8~---|

CHORUS
G-------------------------------------------|
D-------------------------------------------|
A-10-10-10-10-9-9-9-9-0-0-0-0---------------|
E-----------------------------10-10-10-10---|

MELVIN'S MINI-SOLO
G-------------------------------------------------|
D-------------------------------------------------|
A-10-10-10-10-10-10-10-10-10-10-10-10-10-10-10-10-|
E-------------------------------------------------|

DRUMS
G--------------------------|
D--------------------------|
A-10~----9~----------------|
E---------------8~---10~---|
Comments