Nofx - Idiot Son Of An Asshole Chords & Tabs

 

Idiot Son Of An Asshole Chords & Tabs

Nofx Chords & Tabs

Version: 1 Type: Bass Tab 0 ratings
1 star 2 stars 3 stars 4 stars 5 stars
comments

Idiot Son Of An Asshole Bass Tab

   
Idiot Son Of An Asshole by NOFX


INTRO x1
G-------------------------------------------------------------------------|
D-------------------------------------------------------------------------|
A-10-10-10-10-10-10-10-10-10-10-10-10-10-10-10-10-10-10-10-10-10-10-10-10-|
E-------------------------------------------------------------------------|

VERSE 
G-------------------------------------|
D-------------------------------------| x2
A-10-10-10-10-9-9-9-9-7-7-7-7-3-3-5-5-|
E-------------------------------------|

G-------------------------------------|
D-------------------------------------| x1
A-10-10-10-10-5-5-5-5-6-6-6-6-3-3-3-3-|
E-------------------------------------|
[ Tab from: http://www.guitartabs.cc/tabs/n/nofx/idiot_son_of_an_asshole_btab.html ]
G-----------------------------|
D-----------------------------| x1
A-10-10-10-10-5-5-5-5-6-6-6-6-|
E-----------------------------|

PRE-CHORUS
G----------|
D----------|
A-3~-3~-3~-|
E----------|

CHORUS
G-------------------------------------|
D-------------------------------------|
A-10-10-10-10-9-9-9-9-0-0-0-0-5-5-5-5-|
E-------------------------------------|

MELVIN'S MINI-SOLO
G-------------------------------------------------|
D-------------------------------------------------|
A-10-10-10-10-10-10-10-10-10-10-10-10-10-10-10-10-|
E-------------------------------------------------|

DRUMS
G--------------------------|
D--------------------------|
A-10~----9~----3~----5~----|
E--------------------------|

It's not hard to figure out where each part goes, plus I'm lazy.  Had to submit this on
Election Day; lets get this coke addict out of office for good.
Comments