Nofx - Id Chords & Tabs

 

Id Chords & Tabs

Nofx Chords & Tabs

Version: 1 Type: Bass Tab

Id Bass Tab

# intro #
G-------------|---------3X-------------|------------------------|
D-------------|---------------------2-0|--------------------9\--|
A---2-0-2-----|-2-0-2-2-5-0-2-0-2-2----|2-0-2-2-5-0-2-0-2-------|
E-------------|------------------------|------------------------|
:
# verse #   *=play 7X
G--------------------------------------------------|
D----*-----*-----*-----545454-*-----*-----*-----*--|
A---2-----0-----2------------2-----0-----2-----2---|
E--------------------------------------------------|
:
# verse2 # 0:27   *=play 6-7X
G----------*--|--*-----------*----------|----------------------------|
D----*----7---|-9----11-12117----11-1211|-*------------*-------------|
A---0---------|-------------------------|2-----4--5-4-0-----4--5-4---|
E-------------|---------2X--------------|----------------------------|
:
# verse3 #   *=play 6-8X       |0:42                            >
G-|----------------------------|------------------------------|->
D-|-------0-0-2-2-------0-0-2-2|4-4-4-5-4--*----4-4-4-5-4--*--|->
A-|-2-2-2---------2-2-2--------|----------5---------------2---|->
E-|----------------------------|--------------2X--------------|->
>verse3                               |1:01                             >
>-|-----------------------------------|--------------------------------*>
>-|-0-0-0--------*----0-0-0-2-2-2--*--|-5-5-5-0-0-0--*----5-5-5-7-7-7-9->
>-|-------0-0-0-2-----------------2---|-------------2------------------->
>-|-----------------2X----------------|--------------------------------->
>verse3
>-------------------------------------|
>---5-5-5-0-0-0--*----5-5-5-7-7-7-----|
>---------------2-----------------2---|
>-------------------------------------|
:
# bridge # X4   %=pause
G-----------------------------|
D-----------------------------|
A---5-----2-%%%%%%%%%%%%%-2---|
E-----------------------------|
:
# outro #   *=play 6X                                         >
G----*--|------------*---------------*--|--------------------->
D---0---|---------0-2-----5-5-5-4-2-0---|--------------------->
A-------|-2-2-2-2-----------------------|-2-0-2-2-5-0-2-0-2-%%>
E-------|-------------2X----------------|--------------------->
>outro
>---------------------------------------------|
>---------------------------------------------|
>%%%%%%%%%%%%%%%%%%%%%%%%-2-0-2-2-5-0-2-0-2---|
>---------------------------------------------|
:
[ Tab from: http://www.guitartabs.cc/tabs/n/nofx/id_btab.html ]