Nofx - Here Comes The Neighborhood Chords & Tabs

 

Here Comes The Neighborhood Chords & Tabs

Nofx Chords & Tabs

Version: 2 Type: Tab 0 ratings
1 star 2 stars 3 stars 4 stars 5 stars
comments

Here Comes The Neighborhood Tab

   
HERE COMES THE NEIGHBORHOOD by NOFX. Album : Liberal animation (1988)     1/3
I didn't tab the solo because it is so quietly on the background that I
can't get a thing of it. Nice song anyway!
A=Dave   B=Melvin   A&B=both
:
# intro #A X8
E---3--3-3-3-3--5--5-5-5-5---|
B---5--5-5-5-5--7--7-7-7-7---|
G---5--5-5-5-5--7--7-7-7-7---|
D---5--5-5-5-5--7--7-7-7-7---|
A---3--3-3-3-3--5--5-5-5-5---|
E----------------------------|
# intro #B X8
E------8-----8----10----10---|
B------5-----5-----7-----7---|
G----------------------------|
D----------------------------|
A----------------------------|
E----------------------------|
:
# intro2 #A   <<<=pick-slide
E-------------------------------------------|
B-------------------------------------------|
G-------------------------------------------|
D-----2-3-5-3-2---4-5-7-5-4-2-------2-------|
A---3-----------5-----------2-------2---<<<-|
E---------------------------0-------0---<<<-|
# intro2 #B   %=pause   <<<=pick-slide
E-------------------------------------------|
B-------------------------------------------|
G---5-----------7---------------------------|
D---5-----------7-----------2-------2-------|
A---3-%%%%%%%%%-5-%%%%%%%%%-2-------2---<<<-|
E---------------------------0-------0---<<<-|
:
# intro3 #A X2  *=play 6X   #=play3X
E-----------------------------------|
B----------------------------#---#--|
G----*-------#---#---*------7---9---|
D---2-------2---4---5-------7---9---|
A---2-------2---4---5-------5---7---|
E---0-------0---2---3---------------|
# intro3 #B X2  *=play 6X   #=play 3X
E-----------------------------------|
B----------------------------#---#--|
G----*-------#-------*------7---9---|
D---2-------2---4---5-------7---9---|
A---2-------2-------5-------5---7---|
E---0-------0-------3---------------|
:
# chorus #A                                           >
E----------------------------------------------------->
B----------------------------------------------------->
G----------------------------------------1314161413--->
D-----2-3-5-3-2---4-5-7-5-4---6-7-9-7-614------------->
A---3-----------5-----------7------------------------->
E----------------------------------------------------->
# chorus #B   *=play 6X                               >
E----------------------------------------------------->
B----*-----------*------------------------------------>
G---5-----------7------------*----------9-----9------->
D---5-----------7-----------2-----------9-----9------->
A---3-----------5-----------2-----------7-----7------->
E---------------------------0------------------------->
:
>>>>>>>>>to next page...
:
:
HERE COMES THE NEIGHBORHOOD                                               2/3
:
>chorusA
>----------------------------------------------------------------------------|
>----------------------------------------------------------------------------|
>---------------------------------7-5-4--------------------------------------|
>-----2-3-5-3-2---4-5-7-5-4-------------7-5-4---------2-3-5-3-2---4-5-7-5-4--|
>---3-----------5-----------7-----------------7-----3-----------5------------|
>----------------------------------------------------------------------------|
>chorusB
>----------------------------------------------------------------------------|
>----*-----------*-----------------------------------*-----------*-----------|
>---5-----------7-----------------7-5-4-------------5-----------7------------|
>---5-----------7-----------2-----------7-5-4-------5-----------7------------|
>---3-----------5-----------2-----------------7-----3-----------5------------|
>---------------------------0------------------------------------------------|
:
# bridge #A   !play all notes X6!  (I've had enough...)
E-----------------------------------|
B-----------------------------------|
G---9---7-----------9---7-----------|
D---9---7---5---5---9---7---5---5---|
A---7---5---5---5---7---5---5---5---|
E-----------3---3-----------3---3---|
# bridge #B   !play all notes
E-----------------------------------|
B-----------------------------------|
G-----------------------------------|
D---2---4---5---5---2---4---5---5---|
A---2-------5---5---2-------5---5---|
E---0-------3---3---0-------3---3---|
:
# bridge2 #A&B X4
E-----------------/p-mute\------------|
B-------------------------------------|
G-------------------------------------|
D---2-2---5-5-5-2-77777777------025---|
A---2-2---5-5-5-2-55555555----02------|
E---0-0---3-3-3-0----------003--------|
:
# bridge3 #A&B
E----------------------------------------------------|
B----------------------------------------------------|
G---9-9----------7-7----------5-5--------------------|
D---9-9------025-7-7------025-5-5------025-5-5-5-5---|
A---7-7----02----5-5----02----3-3----02----5-5-5-5---|
E-------003----------003----------003------3-3-3-3---|
:
# bridge4 #A
E-------------------------------|
B-------------------------------|
G-------------------------------|
D---2---------------------------|
A---2---------------------------|
E---0---------------------------|
# bridge4 #B
E-------------------------------|
B---------------------------5---|
G-------------------------4-----|
D---2---------4-5---0-2---------|   > Then play AchorusA or BchorusB.
A---2---2-3---------------------|
E---0---------------------------|
:
>>>>>>>>>to next page...
:
:
:
:
HERE COMES THE NEIGHBORHOOD                                               3/3
:
# end-chorus2 #A   <<<=pick-slide
E-------------------------|
B-------------------------|
G-------------------------|
D---2-----2---------------|
A---2-----2-----<<<<<<<---|
E---0-----0-----<<<<<<<---|
# end-chorus2 #B
E-------------------------|
B-------------------------|
G-------------------------|      > Then play A&Bintro3AX2 (solo).
D---2-----2---------5-2---|
A---2-----2-----3-2-------|
E---0-----0---------------|
:
# chorus3 #B   *=play 6X   !A plays chorusA!          >
E----------------------------------------------------->
B----*-----------*------------------------------------>
G---5-----------7------------*----------9-----9------->
D---5-----------7-----------2-----------9-----9------->
A---3-----------5-----------2-----------7-----7------->
E---------------------------0------------------------->
>chorus3B
>----------------------------------------------------------------------------|
>----*-----------*-----------------------------------*-----------*-----------|
>---5-----------7-----------------7-5-4-9-7-6-9-----5-----------7------------|
>---5-----------7-----------2-----------------------5-----------7------------|
>---3-----------5-----------2-----------------------3-----------5------------|
>---------------------------0------------------------------------------------|
:
Then play AbridgeA or BbridgeB, A&Bbridge2A&BX4 and A&Bbridge3A&B.
:
# bridge5 #A
E-------------------------|
B-------------------------|
G-------------------------|
D---2---------------------|
A---2---------------------|
E---0---------------------|
# bridge5 #B
E-------------------------|
B-------------------------|
G-------------------------|
D---2---4-5---5-7---7-9---|   > Then play AchorusA or Bchorus3B.
A---2---------------------|
E---0---------------------|
:
# outro #A
E-------------------------|
B-------------------------|
G---------------5-4-------|
D---2-----2---------5-----|
A---2-----2-----------7---|
E---0-----0---------------|
# outro #B
E-------------------------|
B-------------------------|
G-------------------------|
D---2-----2---------5-2---|
A---2-----2-----3-2-------|
E---0-----0---------------|
:
Quite a long list!
Tabbed by Jussi Heinonen 2.10.1998.
[ Tab from: http://www.guitartabs.cc/tabs/n/nofx/here_comes_the_neighborhood_tab_ver_2.html ]
Comments