Nofx - Green Corn Chords & Tabs

 

Green Corn Chords & Tabs

Nofx Chords & Tabs

Version: 3 Type: Tab 0 ratings
1 star 2 stars 3 stars 4 stars 5 stars
comments

Green Corn Tab

   
Band: NOFX
Song: Green Corn
Album: Ribbed

This is a great NOFX song. It has many parts and can get a bit confusing.

This is also my first tab. I know it is 100% correct or very close.
I have never seen this song (complete and correct) on any tab site so far,
so if you see one on there, then it's mine and someone stole it.
Another thing, I rule.

The guitars switch off leads.
Guitar A: Eric Melvin
Guitar B: Steve Kidweiler
b: bend (^ up bend)
p: pull-off
h: hammer-on

Note: This is not the strumming pattern of the song! (on most parts)
This is just how many strums are put in the parts
if you just strummed everything repeativly. They are strumming in 3's (down up down).
You figure it out. Even if you don't play the pattern they play it still sounds good.

I have also put in the times of where all of the parts start.
What you see below is the whole song order. I put every part, even repeaters.

Intro:
Guitar: B (Rhythm)
E-------------------------------------------------------------|
B-------------------------------------------------------------|
G-------------------------------------------------------------|
D-------------------------------------------------------------|
A-77777777777777777777777777777777--333333333333--7777--------|
E-55555555555555555555555555555555--111111111111--5555--------|  x2
            (32 times)               

Intro: Guitar A (Lead) (00:02)
Octaves
E-------------------------------------------------------------|
B-------------------------------------------------------------|
G-------------------------------------------------------------|
D-11-11-11-11-11-11-11-11-10-10-10-10-10-10-10-10-------------|
A-------------------------------------------------------------|
E-9--9--9--9--9--9--9--9--8--8--8--8--8--8--8--8--------------|

E-------------------------------------------------------------|
B-------------------------------------------------------------|
G-10-10-10-10-10-10-10-10-10-10-10-10-12-12-12-12-------------|
D-------------------------------------------------------------|
A-8--8--8--8--8--8--8--8--8--8--8--8--10-10-10-10-------------|
E-------------------------------------------------------------|

E-------------------------------------------------------------|
B-------------------------------------------------------------|
G-14-12-14---------------------14-12-14-----------------------|
D----------12--10-12--10-7--10----------12--10--12-10-7--10---|
A-12-10-12---------------------12-10-12-----------------------|
E----------10--8--10--8--5--8-----------10--8--10--8--5--8----|

E-------------------------------------------------------------|
B-------------------------------------------------------------|
G-9-10-10-10-9-9-9-5-5-5--------------------------------------|
D------------------------55555--------------------------------|
A-7-8--8--8--7-7-7-3-3-3-33333--------------------------------|
E-------------------------------------------------------------|

Guitars: A & B
(00:15) It's just the bass and drums here. Just keep mute strumming.
E-x-x-x-x-x-x-------------------------------------------------|
B-x-x-x-x-x-x-------------------------------------------------|
G-x-x-x-x-x-x-------------------------------------------------|
D-x-x-x-x-x-x-------------------------------------------------|
A-x-x-x-x-x-x-------------------------------------------------|
E-x-x-x-x-x-x-------------------------------------------------|

Guitars: A & B
(00:19)
E-------------------------------------------------------------|
B-------------------------------------------------------------|
G-------------------------------------------------------------|
D-----------5-2-----------5-2-9-------------------------------|
A-3-2-3-2-3-3-0-3-2-3-2-3-3-0-7-------------------------------|
E-1-0-1-0-1-----1-0-1-0-1-----------------(pick slide)--------| x1

Verse:
Guitars: A & B
(00:26)
Barre Chords (confusing strumming pattern)
E-5555-1111------33333333333333333333-1111---------------------|
B-5555-1111-5555-33333333333333333333-1111-5555----------------|
G-5555-1111-5555-44444444444444444444-2222-5555----------------|
D-7777-3333-5555-55555555555555555555-3333-5555----------------|
A-7777-3333-3333-55555555555555555555-3333-3333----------------|
E-5555-1111------33333333333333333333-1111---------------------| x2
                       (20 times)

Guitar: B (Rhythm)
(00:37)
E-------------------------------------------------------------|
B-------------------------------------------------------------|
G-------------------------------------------------------------|
D-------------------------------------------------------------|
A-77777777777777777777777777777777--333333333333--7777--------|
E-55555555555555555555555555555555--111111111111--5555--------|  x1
            (32 times)               


Guitar A (Lead) (00:37)
Octaves
E-------------------------------------------------------------|
B-------------------------------------------------------------|
G-14-12-14---------------------14-12-14-----------------------|
D----------12--10-12--10-7--10----------12--10--12-10-7--10---|
A-12-10-12---------------------12-10-12-----------------------|
E----------10--8--10--8--5--8-----------10--8--10--8--5--8----|

E-------------------------------------------------------------|
B-------------------------------------------------------------|
G-9-10-9-7-5-5-5-5--------------------------------------------|
D------------------55555--------------------------------------|
A-7-8--7-5-3-3-3-3-33333--------------------------------------|
E-------------------------------------------------------------|

Verse:
Guitars: A & B
(00:45)
Barre Chords (confusing strumming pattern)

E-5555-1111------33333333333333333333-1111---------------------|
B-5555-1111-5555-33333333333333333333-1111-5555----------------|
G-5555-1111-5555-44444444444444444444-2222-5555----------------|
D-7777-3333-5555-55555555555555555555-3333-5555----------------|
A-7777-3333-3333-55555555555555555555-3333-3333----------------|
E-5555-1111------33333333333333333333-1111---------------------| x2
                       (20 times)
[ Tab from: http://www.guitartabs.cc/tabs/n/nofx/green_corn_tab_ver_3.html ]
Bridge (Ahhhh... part):
Guitars: A & B
(00:56)
E--------------------------------------------------------------|
B--------------------------------------------------------------|
G--------------------------------------------------------------|
D-7777777777777777-555555555555555-33333333--------------------|
A-7777777777777777-555555555555555-33333333--------------------|
E-5555555555555555-333333333333333-11111111--------------------|
     (16 times)       (16 times)

Bridge (After Ahhhh... part):
Guitar: A
(01:02)
E--------------------------------------------------------------|
B--------------------------------------------------------------|
G--------------------------------------------------------------|
D-------------2------------------------------------------------|
A-0-2-3-2-5-3-2------------------------------------------------|
E-------------0------------------------------------------------|
              ^
Both guitars play

         
Guitars: A & B
(01:07) It's just the bass and drums here. Just keep mute strumming.
E-x-x-x-x-x-x-------------------------------------------------|
B-x-x-x-x-x-x-------------------------------------------------|
G-x-x-x-x-x-x-------------------------------------------------|
D-x-x-x-x-x-x-------------------------------------------------|
A-x-x-x-x-x-x-------------------------------------------------|
E-x-x-x-x-x-x-------------------------------------------------|

Guitar: A
(01:09) Eric keeps muting...
E-x-x-x-x-x-x-------------------------------------------------|
B-x-x-x-x-x-x-------------------------------------------------|
G-x-x-x-x-x-x-------------------------------------------------|
D-x-x-x-x-x-x-------------------------------------------------|
A-x-x-x-x-x-x-------------------------------------------------|
E-x-x-x-x-x-x-------------------------------------------------|

Guitar: B
(01:09)
E-------------------------------------------------------------|
B-------------------------------------------------------------|
G-------------------------------------------------------------|
D-77-7p-5------------77-7p-5-----------77-7p-5----------------|
A---------7-7p-5-------------7-7p-5--5---------7-7p-5---------|
E----------------8-5----------------8----------------8-5------|

Guitars: A & B
(01:14)
E-------------------------------------------------------------|
B-------------------------------------------------------------|
G-------------------------------------------------------------|
D-------------------------------------------------------------|
A-3-2-3-2-3---------------------------------------------------|
E-1-0-1-0-1---------------------------------------------------|

Guitar: A (Rhythm)
(01:15)
Under solo
E-------------------------------------------------------------|
B-------------------------------------------------------------|
G-------------------------------------------------------------|
D-------------------77777777----------------------------------|
A-77777777-55555555-55555555-77777777-------------------------|
E-55555555-33333333----------55555555-------------------------| x2

Guitar:B (Lead)
(01:15)
Solo - Part 1:
E--------------------------------7-8-10-12-10-8---------------|
B-------------------------6-8-10----------------10------------|
G-------------------5-7-9-------------------------------------|
D-------------5-7-9-------------------------------------------|
A-------5-7-8-------------------------------------------------|
E-5-7-8-------------------------------------------------------|
  ^----------Aoeolian Scale-----------^

Guitar: B (Lead)
(01:21)
Solo - Part 2:
E--------------------------------------------------------------|
B-10-10-13hp10-10-10-15hp10-10-10-13hp10-10-10-15hp10-10-10----|
G--------------------------------------------------------------|
D--------------------------------------------------------------|
A--------------------------------------------------------------|
E--------------------------------------------------------------| x2

Guitar: B (Lead)
(01:23)
Solo - Part 3:
E--------------------------------------------------------------|
B-20b^-20-17------17-20-20b^-20--------------------------------|
G------------19b^----------------------------------------------|
D-------------------------------19-----------------------------|
A--------------------------------------------------------------|
E--------------------------------------------------------------|

Verse:
Guitars: A & B
(01:26)
Barre Chords (confusing strumming pattern)
E-5555-1111------33333333333333333333-1111---------------------|
B-5555-1111-5555-33333333333333333333-1111-5555----------------|
G-5555-1111-5555-44444444444444444444-2222-5555----------------|
D-7777-3333-5555-55555555555555555555-3333-5555----------------|
A-7777-3333-3333-55555555555555555555-3333-3333----------------|
E-5555-1111------33333333333333333333-1111---------------------| x2
                       (20 times)
                                               ^Pause after first time

Outro:
Guitar: A (Rhythm)
(01:37)
E------------------------------------------------------------------|
B------------------------------------------------------------------|
G------------------------------------------------------------------|
D------------------------------------------------------------------|
A-7777777777777777-10-10-10-10-10-10-10-10-10-10-10-10-10-10-10-10-|
E-5555555555555555-8--8--8--8--8--8--8--8--8--8--8--8--8--8--8--8--|
    (16 times)                     (16 times)

E------------------------------------------------------------------|
B------------------------------------------------------------------|
G------------------------------------------------------------------|
D------------------------------------------------------------------|
A-12-12-12-12------------------------------------------------------|
E-10-10-10-10------------------------------------------------------|

Outro:
Guitar: B (Lead)
(01:37)
E------------------------------------------------------------------|
B------------------------------------------------------------------|
G-14-12-14--------14-12-14-------14-12-----------------------------|
D----------12--10----------12-10-----------------------------------|
A-12-10-12--------12-10-12-------12-10-----------------------------|
E----------10--8-----------10-8------------------------------------|

Outro:
Guitars: A & B
(01:43)
E------------------------------------------------------------------|
B------------------------------------------------------------------|
G------------------------------------------------------------------|
D------------------------------------------------------------------|
A-10-12-14-15-12-10-7----------------------------------------------|
E-8--10-12-13-10-8--5----------------------------------------------|

(01:44) Finished.

Please rate my tab.
Thanks.

Questions or suggestions? Send them to: Cyco00Vision@hotmail.com
Comments