Nofx - Glass War Chords & Tabs

 

Glass War Chords & Tabs

Nofx Chords & Tabs

Version: 1 Type: Bass Tab 0 ratings
1 star 2 stars 3 stars 4 stars 5 stars
comments

Glass War Bass Tab

Song: Glass War
Artist: NOFX
Tabbed by: blinky
This is my first tab, I hope you like it.

=hit 16 times
*=hit 4 times

MAIN PART 1
G---22--22--22------|
D-00--33--22----32--|  X12
A-------------33----|
E-------------------|


BRIDGE *= strum 4 times
G--------------|
D-0*-3*-2*-----|  X2
A----------3*--|
E--------------|

[ Tab from: http://www.guitartabs.cc/tabs/n/nofx/glass_war_btab.html ]
MAIN PART 2
G---22--00--00------|
D-00--33--22----32--|  X4
A-------------33----|
E-------------------|


CHORUS X2 
G---------------------------|
D-0*-3*-2*----0*-3*-2*-/10*-| 
A----------3*---------------|    
E---------------------------|

MAIN 1 X4

MAIN 2 X4

CHORUS X2

MAIN 1 X4

VERSE X5   
G--------------|
D-0-3--------|  
A------3-----|
E---------5--|

MAIN 1 X4

END ON
D--0-0---|


Ich bin die Zwiebel des Todes!
Comments