Nofx - Germ Free Adolescents Chords & Tabs

 

Germ Free Adolescents Chords & Tabs

Nofx Chords & Tabs

Version: 1 Type: Bass Tab

Germ Free Adolescents Bass Tab

INTRO at 00:07 *=play several times =play 8X =play 20X
G--------------------------------------------------------------------------+
D----------------------12-10-----------------------------------------------+
A-3-5----------3-5-----------12-10-7-5--5*------------3--5--------3--5-+
E--------------------------------------------------------------------------+
:
VERSE =play 14X *=play several times =play 8X =play 20X
G-(------------------)---------------------------------+
D-(------------------)---------------------------------+  Then play brackets
A-(----5--3*------5*)----------3--5----------3--5-+
E-(3----------------)---------------------------------+
:
VERSE2 =play 14X *=play several times
G------------------------------------------------+
D------------------------------------------------+
A-----5-----5-----5--3--------5*--to-the-end-+
E-3-----3-----3-------------------------------+

Short but good song! Enjoy
[ Tab from: http://www.guitartabs.cc/tabs/n/nofx/germ_free_adolescents_btab.html ]