Nofx - Franco Unamerican Chords & Tabs

 

Franco Unamerican Chords & Tabs

Nofx Chords & Tabs

Version: 6 Type: Tab

Franco Unamerican Tab

   
Artist: NOFX
Song: Franco Un-American
Album: The War on Errorism

I really like this song then I saw them play it on conan o'brien and i studied the video 
best i could and came up with this

Tuning: eadgbe (standard)

Intro:
e--------------------------------|
b--------------------------------|
g--------------------------------|
d--------------------------------|
a--------------------------------|
E--3/15-15\/15-15\/15-15\/15-----|

I never thought about...
e-----------------------------------------------------------------|
b-----------------------------------------------------------------|
g------------5-5--5--------9-9--9---------------5-5/7-7--7--------|
d-------5--5-5-5--5-5-5--5-9-9--9--7--7--7--7-7-5-5/7-7--7--------|
a-------5--5-3-3--3-5-5--5-7-7--7--7--7--7--7-7-3-3/5-5--5--------|
E-------3--3--------3-3--3-0-0--0--5--5--5--5-5-------------------|
[ Tab from: http://www.guitartabs.cc/tabs/n/nofx/franco_unamerican_tab_ver_6.html ]
  Why think all the bad things...
e-----------------------------------------------------------------|
b-----------------------------------------------------------------|
g-----------------------------------------------------------------|
d---------5-5-5-5---------------------------------5-5-5-7-7-7-7-7-|
a-5-5-5-5-3-3-3-3-5-5-5-5-2-2-2-2-7-7-7-7-7-7-7-7-3-3-3-5-5-5-5-5-|
E-3-3-3-3---------3-3-3-3-0-0-0-0-5-5-5-5-5-5-5-5-----------------|
pm...............................................................
I don't want changes...
e-----------------------------------------------------------------|
b-----------------------------------------------------------------|
g------------------------------------55-5-77-7--------------------|
d-5--5--5--55-5--5--5--50-2--2--2--2-55-5-77-7--------------------|
a-5--5--5--55-4--4--4--40-2--2--2--2-33-3-33-3--------------------|
E-3--3--3--33-2--2--2--2--0--0--0--0------------------------------|

  That's no way to go...
e-----------------------------------------------------------------|
b-----------------------------------------------------------------|
g------7-7--7--------5-5--5---------------------------------------|
d-5--5-7-7--7-2-2--2-5-5--5---------------------------------------|
a-5--5-5-5--5-2-2--2-3-3--3---------------------------------------|
E-3--3--------0-0--0----------------------------------------------|

Franco, Franco Un-American
e-----------------------------------------------------------------|
b-----------------------------------------------------------------|
g-7\--------------------------------------------------------------|
d-7\-2------------------------------------------------------------|
a-5\-2------------------------------------------------------------|
E----0-------------15\--------------------------------------------|
                   (Don't play this slide at the end)
Keyboard Part (If you don't have a keyboard, or just wanna play it on guitar)
e--/15--15--15----15--17p15----15--15--15----15--19p17p15---------|
b-----------------------------------------------------------------|
g-----------------------------------------------------------------|
d-----------------------------------------------------------------|
a-----------------------------------------------------------------|
E-----------------------------------------------------------------|