Nofx - Franco Unamerican Chords & Tabs

 

Franco Unamerican Chords & Tabs

Nofx Chords & Tabs

Version: 4 Type: Tab 0 ratings
1 star 2 stars 3 stars 4 stars 5 stars
comments

Franco Unamerican Tab

Band: NoFx
Song: Franco Un-american
Album: War on errorism
Tabbed by: TwR
PM me (ultimate-guitar forums) for corrections/questions/comments.

Figure out the strumming pattern on your own :)

Song order:

1      (8x)
Intro  (2x)
Riff   (2x, melody in background 2x)
Verse  (2x)
Bridge (1x)
Chorus (4x)
Verse  (2x, melody in background 2x)
Intro  (2x)
Verse  (2x)
Intro  (2x)
Chorus (4x, melody in background)

иииииииииииииииииииииииииииииииииииииииииииииииииии
   1
e|-------------|
B|-------------|
G|-------------|
D|-------------|
A|-------------|
E|--15-15/10---|

   Intro
e|----------------------------|
B|----------------------------|
G|-----5-----9--------5---7---|
D|--5--5--5--9---7-7--5---7---|
A|--5--3--5--7---7-7--3-2-5---|
E|--3-----3------5-5----------|


   Riff
e|--------------------------|
B|--------------------------|
G|-----5-----9--------5--4--|
D|--5--5--5--9---7-7--5--4--|
A|--5--3--5--7---7-7--3--2--|
E|--3-----3------5-5--------|

[ Tab from: http://www.guitartabs.cc/tabs/n/nofx/franco_unamerican_tab_ver_4.html ]
   Melody
e|--------------------------------------------------------------|
B|--------------------------------------------------------------|
G|-12-12-12-1212--121212-14p12--12-12-12-1212--121212-16-14-12--|
D|--------------------------------------------------------------|
A|--------------------------------------------------------------|
E|--------------------------------------------------------------|
      
   Verse
e|----------------------------|
B|----------------------------|
G|-----5---------------5--7---|
D|--5--5--5--2---7--7--5--7---|
A|--5--3--5--2---7--7--3--5---|
E|--3-----3--0---5--5---------|
  PM.............PM..........


   Bridge
e|------------------------------------------------------------------------|
B|------------------------------------------------------------------------|
G|--------------------------------------------------------5------7--------|
D|-5-------------------5-------------------2--------------5------7--------|
A|-5-------------------5-------------------2--------------3------5--------|
E|-3-------------------2-------------------0------------------------------|

 I don't want changes I have no reactions Your dilemmas are my distractions


   Chorus            
e|-------------------|
B|-------------------|
G|------7------5-----|
D|---5--5---2--5-----|
A|---5--5---2--3-----|
E|---3------0--------|
Comments