Nofx - Franco Unamerican Chords & Tabs

 

Franco Unamerican Chords & Tabs

Nofx Chords & Tabs

Version: 3 Type: Tab 0 ratings
1 star 2 stars 3 stars 4 stars 5 stars
comments

Franco Unamerican Tab

Song: Franco Un-American
Band: NOFX
Tabber: Mark a.k.a. "the sexy one" a.k.a. startineline41
E-mail: nes_blows@msn.com

heh! this is my first tab, i'll do some more when i get un-lazy enough


Intro (Pt. 1)
e---------------------------------
B---------------------------------
G---------------------------------
D---------------------------------
A--5/10/5-5/10/5-5/10/5-5/10/5----
E---------------------------------

Verse 1(Pt. 2)
e------------------------------------------------------------------
B------------------------------------------------------------------
G---------5-5-5-5---------9-9-9-9-----------------5-5-5-5-7-7-7-7--
D-5-5-5-5-5-5-5-5-5-5-5-5-9-9-9-9-7-7-7-7-7-7-7-7-5-5-5-5-7-7-7-7--
A-5-5-5-5-3-3-3-3-5-5-5-5-7-7-7-7-7-7-7-7-7-7-7-7-3-3-3-3-5-5-5-5--
E-3-3-3-3---------3-3-3-3---------5-5-5-5-5-5-5-5------------------

Pt. 1 in background

Interlude 1(keyboard)
e------------------------------------------------------
B------------------------------------------------------
G-12-12-12--12-12-12-14-12--12-12-12--12-12-12-16-14-12
D------------------------------------------------------
A------------------------------------------------------
E------------------------------------------------------

Pt. 2 in background

Verse 2
e------------------------------------------------------------------
B------------------------------------------------------------------
G---------5-5-5-5---------9-9-9-9-----------------5-5-5-5-7-7-7-7--
D-5-5-5-5-5-5-5-5-5-5-5-5-9-9-9-9-7-7-7-7-7-7-7-7-5-5-5-5-7-7-7-7--
A-5-5-5-5-3-3-3-3-5-5-5-5-7-7-7-7-7-7-7-7-7-7-7-7-3-3-3-3-5-5-5-5--
E-3-3-3-3---------3-3-3-3---------5-5-5-5-5-5-5-5------------------

p.m.-------------------------------------------------------------->

Bridge
e------------------------------------------
B------------------------------------------
G-------------------------5-5-5-5-7-7-7-7--
D-5-5-5-5-5-5-5-5-2-2-2-2-5-5-5-5-7-7-7-7--
A-5-5-5-5-5-5-5-5-2-2-2-2-3-3-3-3-5-5-5-5--
E-3-3-3-3-2-2-2-2-0-0-0-0------------------
[ Tab from: http://www.guitartabs.cc/tabs/n/nofx/franco_unamerican_tab_ver_3.html ]
Chorus
e----------------------------------I---I
B----------------------------------I---I
G---------7-7-7-7---------5-5-5-5--I---I
D-5-5-5-5-7-7-7-7-2-2-2-2-5-5-5-5--I-2-I End Note
A-5-5-5-5-5-5-5-5-2-2-2-2-3-3-3-3--I-2-I
E-3-3-3-3---------0-0-0-0----------I-0-I

Interlude 2
e-------------
B-------------
G----7-----5--
D-5--7--2--5--
A-5--5--2--3--
E-3-----0-----

Order (guitar parts):
Intro
Verse 1 + Intro
Interlude 1 + Verse 1
Verse 2
Bridge
Chorus
Interlude 1 + Verse 1
Verse 1
Verse 2
Chorus
Interlude 2
Chorus + Interlude 1

Lyrics:
I never thought about the universe, it made me feel small
I never thought about the problems on this planet at all
Global warming and radioactive sites
The imperialistic wrongs and animal rights, NO!

Why think all the bad things when life is so good
Why help with an "am" when there's always a "could"
Let the whales worry 'bout the poisons in the sea outside of California, its foreign policy
No I don't want changes I've no reactions your dilemmas are my distractions

That's no way to go franco un-american
No way to go franco un-american
No way to go franco un-american
No way to go franco un-american
That's no way to go franco, franco um-american

I never looked around never second guessed, then I read some Howard Zinn now I'm
always depressed
And now I can't sleep from years of apathy, all because I read a little Noam Chomsky
I'm eating vegetation cuz a fast food nation, I wear uncomfortable shoes cuz a
globalization
I'm watching Micheal Moore expose the awful truth, I'm listenig to Public Enemy
and Reagen Youth
I see no world peace cuz of zealous armed forces, I eat no breath mints cuz
they're from de-hoofed horses
Now I can't believe what an absolute failure, Th idiot president's laughing cuz
he voted for Nader

That's no way to go franco un-american
No way to go franco un-american
No way to go franco un-american
No way to go franco un-american
Where can we go franco un-american?

I wanna move north and be a Canadian, or hang down low with the nice Australians
I don't wanna be another I-don't-care-ican, what are we gonna do franco, franco
un-american?

there that's all i got
Comments