Nofx - Franco Unamerican Chords & Tabs

 

Franco Unamerican Chords & Tabs

Nofx Chords & Tabs

Version: 3 Type: Bass Tab 0 ratings
1 star 2 stars 3 stars 4 stars 5 stars
comments

Franco Unamerican Bass Tab

NOFX - Franco Un-American

G--------------------------------------------------|
D--------------------------------------------------| x3
A-----0-0----------3-3-0-0-3-3-5-5-3-3-0-0-3-3-5-5-|
E-3-3-----3-3-0-0----------------------------------|

G------------------------------------|
D------------------------------------| x2
A-----3333----------3333000033335555-|
E-3333-----33330000------------------|

G-------------------------------------------------|
D-------------------------------------------------| x1
A---------5-5-5-----------3---5--------5-------3--|
E-3-3-3-----------0-0-0------------3-------3------|
[ Tab from: http://www.guitartabs.cc/tabs/n/nofx/franco_unamerican_btab_ver_3.html ]
G--------------------------------------------------|
D--------------------------------------------------| x3
A-----0-0----------3-3-0-0-3-3-5-5-3-3-0-0-3-3-5-5-|
E-3-3-----3-3-0-0----------------------------------|

G------------------------------------|
D------------------------------------| x2
A-----3333----------3333000033335555-|
E-3333-----33330000------------------|

G---------------------------------|
D---------------------------------| x1
A-----5-5---------3-3-0-0-3-3-5-5-|
E-3-3-----3-3-0-0-----------------|

G---------------------------------------------------------|
D---------------------------------------------------------| x1
A-----5-5-------------------------------------------------|
E-3-3-----3-3-0-0----3----2----3----2----3----2----3----2-|

G-------------------------------|
D-------------------------------| x1
A-----5-------3------5-------3--|
E-3-------3-------3-------3-----|
Comments