Nofx - Franco Unamerican Chords & Tabs

 

Franco Unamerican Chords & Tabs

Nofx Chords & Tabs

Version: 1 Type: Bass Tab 1 rating
1 star 2 stars 3 stars 4 stars 5 stars
comments

Franco Unamerican Bass Tab

Artist - NOFX
Album - War On Erroism
Song - Franco Un-American

/ = Slide


Intro
-----

Rest 4 Bars, Guitar Will come in. Wait 8 More Bars Then...

Pre-Verse
---------

G|-----------------|-----------------|-----------------|-----------------|                     
D|-----------------|-----------------|-----------------|-----------------| X2
A|---------3---3-3-|---------7-7-7-7-|-----------------|-3---3-3-2---2-2-|
E|-3---3-3---------|-3---3-3---------|-5---5-5-5---5-5-|-----------------|

Verse
-----

G|-----------------|-----------------|-----------------|-----------------|
D|-----------------|-----------------|-----------------|-----------------| X2
A|---------3-3-3-3-|---------7-7-7-7-|-----------------|-3-3-3-3-5-5-5-5-|
E|-3-3-3-3---------|-3-3-3-3---------|-5-5-5-5-5-5-5-5-|-----------------|

Pre-Chorus
----------

G|-----------------|-------------------------|-----------------|-----------------|
D|-----------------|-------------------------|-----------------|-----------------|
A|-----------------|-------------------------|-----------------|-3-3-3-3-5-5-5-5-|
E|-3-3-3-3-3-3-3-/-|-14-14-14-14-14-14-14-14-|-0-0-0-0-0-0-0-0-|-----------------|
                     ^
                   14, not 1 and 4!
                     

Chorus
------

G|-----------------|-----------------|
D|-----------------|-----------------| X3
A|---------5-5-5-5-|---------3-3-3-3-|
E|-3-3-3-3---------|-0-0-0-0---------|

G|-----------------|-----------------|
D|-----------------|-----------------|
A|---------5-5-5-5-|-----------------|
E|-3-3-3-3---------|-0-(Rest)--------|

Pre-Verse
---------
[ Tab from: http://www.guitartabs.cc/tabs/n/nofx/franco_unamerican_btab.html ]
G|-----------------|-----------------|-----------------|-----------------|    
D|-----------------|-----------------|-----------------|-----------------| X2
A|---------3---3-3-|---------7-7-7-7-|-----------------|-3---3-3-2---2-2-|
E|-3---3-3---------|-3---3-3---------|-5---5-5-5---5-5-|-----------------|

G|-----------------|-----------------|-----------------|-----------------|    
D|-----------------|-----------------|-----------------|-----------------| X2
A|---------3---3-3-|---------7-7-7-7-|-----------------|-3---3-3-5---5-5-|
E|-3---3-3---------|-3---3-3---------|-5---5-5-5---5-5-|-----------------|

Verse
-----

G|-----------------|-----------------|-----------------|-----------------|
D|-----------------|-----------------|-----------------|-----------------| X2
A|---------3-3-3-3-|---------7-7-7-7-|-----------------|-3-3-3-3-5-5-5-5-|
E|-3-3-3-3---------|-3-3-3-3---------|-5-5-5-5-5-5-5-5-|-----------------|

G|-----------------|-----------------|-----------------|-----------------|                     
D|-----------------|-----------------|-----------------|-----------------| X2
A|---------3---3-3-|---------7-7-7-7-|-----------------|-3---3-3-5---5-5-|
E|-3---3-3---------|-3---3-3---------|-5---5-5-5---5-5-|-----------------|

Pre-Bridge
----------

G|-----------------|-----------------|
D|-5-5-5-5-5-5-5-5-|-5-5-5-5-5-5-5-5-|
A|-----------------|-----------------|
E|-----------------|-----------------|

Bridge
------

Wait while the organ and drums play, Then...


Chorus/Outro
------------


G|-----------------|-----------------|
D|-----------------|-----------------| X3
A|---------5-5-5-5-|---------3-3-3-3-|
E|-3-3-3-3---------|-0-0-0-0---------|

G|-----------------|-----------------|
D|-----------------|-----------------|
A|---------5-5-5-5-|-----------------|
E|-3-3-3-3---------|-0-(Rest)--------|

Please Rate :D I hope its right, bass is quite hard to hear in the song.
Comments