Nofx - Franco Un American Chords & Tabs

 

Franco Un American Chords & Tabs

Nofx Chords & Tabs

Version: 1 Type: Tab 0 ratings
1 star 2 stars 3 stars 4 stars 5 stars
comments

Franco Un American Tab

NoFX – Franco Un-American
off the new album – War of Errorism.
This track rocks
Tabbed by Ben Sheridan,   30 Mar ‘03

Intro/Verse
e--------------------------------------------------------------------
b--------------------------------------------------------------------
g-----------------5------------------5---------2-------5-------7-----
d------5----------5--x4-----5--------5---x4----2--x8---5--x4---7--x4-
a------5--x4------3---------5--x4----2---------0-------3-------5-----
e------3--------------------3---------------------------------------

Riff
e-----------------------------------------------
b-----------------------------------------------
g--------------------------------------4--------
d-----5--5-------5--7------5--5------5---7--5---
a-----------------------------------------------
e-----------------------------------------------

Chorus
[ Tab from: http://www.guitartabs.cc/tabs/n/nofx/franco_un_american_tab.html ]
Part 1                      | Part 2
e----------------------------|---------------------------------
b----------------------------|---------------------------------
g----------------------5-----|--------7------5------5----------
d-5------5------2------5--x8-|-5------7--x4--5--x4--5--x4---X3-
a-5--x8--5--x8--2--x8--3-----|-5--x4--5------2------3----------
e-3------2------0------------|-3-------------------------------

e---------------------
b---------------------
g--------7--------5---
d-5------7--x4----5---
a-5--x4--5--------2---
e-3-------------------

The Slower Part
e--------------------------------------|------------------------------
b--------------------------------------|------------------------------
g---------------------7-----------5----|------------------------------
d----5-----------5----7-----5-----5----| Now play Part 2 of the chorus
a----5--x16------5----5-----2-----3----|------------------------------
e----3-----------3----------0----------|------------------------------

Comments