Nofx - Forming Chords & Tabs

 

Forming Chords & Tabs

Nofx Chords & Tabs

Version: 1 Type: Tab 0 ratings
1 star 2 stars 3 stars 4 stars 5 stars
comments

Forming Tab

Hey this is my own version of the song and ive played along to it a number of times and its more right than any other tab of the song ive seen

|--------------------------------------------------------------------------------
|--------------------------------------------------------------------------------
|--------------------------------------------------------------------------------
|--------------------------------------------------------------------------------
|-7-7-7---5-5-5---7-7-7---5-5-5---7-7-7---5-5-5---3-3-3-3-3-3-3-3------
|-5-5-5---3-3-3---5-5-5---3-3-3---5-5-5---3-3-3---1-1-1-1-1-1-1-1------ 


|--------------------------------------------------------------------------------
|--------------------------------------------------------------------------------
|--------------------------------------------------------------------------------
|--------------------------------------------------------------------------------
|-7-7-7---5-5-5---7-7-7---5-5-5---7-7-7---5-5-5---3-3-3-3-3-3-3-3------
|-5-5-5---3-3-3---5-5-5---3-3-3---5-5-5---3-3-3---1-1-1-1-1-1-1-1------ 


|---------------------------------------------------------------------------------
|---------------------------------------------------------------------------------
|---------------------------------------------------------------------------------
|---------------------------------------------------------------------------------
|-5-5-5-5-5-5-5-5--------------------------------------------------------------
|-3-3-3-3-3-3-3-3--------------------------------------------------------------

Play all above 2times


|---------------------------------------------------------------------------------
|---------------------------------------------------------------------------------
|---------------------------------------------------------------------------------
|---------------------------------------------------------------------------------
|-7-7-7---5-5-5---3-3-3---5-5-5----------------------------------------------
|-5-5-5---3-3-3---1-1-1---3-3-3----------------------------------------------  X2

[ Tab from: http://www.guitartabs.cc/tabs/n/nofx/forming_tab.html ]
|--------------------------------------------------------------------------------
|--------------------------------------------------------------------------------
|--------------------------------------------------------------------------------
|-7-7-7---5-5-5---7-7-7---5-5-5---7-7-7---5-5-5---3-3-3-3-3-3-3-3------
|-5-5-5---3-3-3---5-5-5---3-3-3---5-5-5---3-3-3---1-1-1-1-1-1-1-1------ 



|---------------------------------------------------------------------------------
|---------------------------------------------------------------------------------
|---------------------------------------------------------------------------------
|---------------------------------------------------------------------------------
|-5-5-5-5-5-5-5-5--------------------------------------------------------------
|-3-3-3-3-3-3-3-3--------------------------------------------------------------



|---------------------------------------------------------------------------------
|---------------------------------------------------------------------------------
|---------------------------------------------------------------------------------
|---------------------------------------------------------------------------------
|-7-x-x-x-x-x---5-x-x-x-x-x---3-x-x-x-x-x---5-x-x-x-x-x---------------------
|-5-x-x-x-x-x---3-x-x-x-x-x---1-x-x-x-x-x---3-x-x-x-x-x--------------------- X2



|--------------------------------------------------------------------------------
|--------------------------------------------------------------------------------
|--------------------------------------------------------------------------------
|-7-7-7---5-5-5---7-7-7---5-5-5---7-7-7---5-5-5---3-3-3-3-3-3-3-3------
|-5-5-5---3-3-3---5-5-5---3-3-3---5-5-5---3-3-3---1-1-1-1-1-1-1-1------ 


|---------------------------------------------------------------------------------
|---------------------------------------------------------------------------------
|---------------------------------------------------------------------------------
|---------------------------------------------------------------------------------
|-5-5-5-5-5-5-5-5--------------------------------------------------------------
|-3-3-3-3-3-3-3-3--------------------------------------------------------------





Comments